ACDC - Shoot To Thrill

AC-DC



Title: Shoot To Thrill
Album: Back In Black
Artist: AC/DC
Author: Angus Young, Malcolm Young and Brian Johnson

Track 1: Guitar 1
E|----------------------------|--------|---------|---------|----------------------------|
B|----------------------------|--------|---------|---------|----------------------------|
G|-%---------------------2----|-2------|-2-------|-2-------|-2---------------------2----|
D|-%------2----2---------2----|-2------|-2-------|-2-------|-2------2----2---------2----|
A|--------0----3----4----0----|-0------|-0-------|-0-------|-0------0----3----4----0----|
E|----------------------------|--------|---------|---------|----------------------------|

E|---------|---------|---------|----------------------------|---------|---------|---------|
B|---------|---------|---------|----------------------------|---------|---------|---------|
G|-2-------|-2-------|-2-------|-2---------------------2----|-2-------|-2-------|-2-------|
D|-2-------|-2-------|-2-------|-2------2----2---------2----|-2-------|-2-------|-2-------|
A|-0-------|-0-------|-0-------|-0------0----3----4----0----|-0-------|-0-------|-0-------|
E|---------|---------|---------|----------------------------|---------|---------|---------|

E|----------------------------|---------|----------------------------|---------|----------------------------|
B|----------------------------|---------|----------------------------|---------|----------------------------|
G|-2---------------------2----|-2-------|-2---------------------2----|-2-------|-2---------------------2----|
D|-2------2----2---------2----|-2-------|-2------2----2---------2----|-2-------|-2------2----2---------2----|
A|-0------0----3----4----0----|-0-------|-0------0----3----4----0----|-0-------|-0------0----3----4----0----|
E|----------------------------|---------|----------------------------|---------|----------------------------|

E|-------------------------|---------------------------------|-------------------------|
B|-------------------------|---------------------------------|-------------------------|
G|-2------2----2-----2-----|-2----2--------------------------|-2------2----2-----2-----|
D|-2------2----2-----2-----|-2----2------2----2--------------|-2------2----2-----2-----|
A|-0------0----0-----0-----|-0----0------0----3----4----0----|-0------0----0-----0-----|
E|-------------------------|---------------------------------|-------------------------|

E|-------------------------|-----------------------------|-------------------------------------|
B|-------------------------|------------3----------------|------3----------3----2----2---------|
G|-2----2------2-----2-----|-0-----%----2----%-----0-----|-%----2----%-----2----2----2---------|
D|-2----2------2-----2-----|-0-----%----0----%-----0-----|-%----0----%-----0----2----2---------|
A|-0----0------0-----0-----|-X---------------------X-----|-----------------0----0----0----0----|
E|-------------------------|-3---------------------3-----|-------------------------------------|

E|-----------------------------|-------------------------------------|-----------------------------|
B|------------3----------------|------3----------3----2----2---------|------------3----------------|
G|-0-----%----2----%-----0-----|-%----2----%-----2----2----2---------|-0-----%----2----%-----0-----|
D|-0-----%----0----%-----0-----|-%----0----%-----0----2----2---------|-0-----%----0----%-----0-----|
A|-X---------------------X-----|-----------------0----0----0----0----|-X---------------------X-----|
E|-3---------------------3-----|-------------------------------------|-3---------------------3-----|

E|-------------------------------------|-----------------------------|-------------------------------------|
B|------3----------3----2----2---------|------------3----------------|------3----------3----2----2---------|
G|-%----2----%-----2----2----2---------|-0-----%----2----%-----0-----|-%----2----%-----2----2----2---------|
D|-%----0----%-----0----2----2---------|-0-----%----0----%-----0-----|-%----0----%-----0----2----2---------|
A|-----------------0----0----0----0----|-X---------------------X-----|-----------------0----0----0----0----|
E|-------------------------------------|-3---------------------3-----|-------------------------------------|

E|---------------------------------|----------------------|---------------------------------|
B|---------------------------------|----------------------|---------------------------------|
G|-5-------------------------5-----|-5-------5----5---5---|-5-------------------------5-----|
D|-5----------5----5---------5-----|-5-------5----5---5---|-5----------5----5---------5-----|
A|-3----------5----5---------3-----|-3-------3----3---3---|-3----------5----5---------3-----|
E|-------0----3----3----0----------|----------------------|-------0----3----3----0----------|

E|----------------------------------------|---------------------------------|-------------------|
B|----------------------------------------|---------------------------------|-------------------|
G|-5----5----5-----5----5----5------------|-7-------------------------7-----|-7-------7---------|
D|-5----5----5-----5----5----5----0---0---|-7----------7----7---------7-----|-7-------7---------|
A|-3----3----3-----3----3----3----0---0---|-5-----0----7----7----0----5-----|-5-------5---------|
E|----------------------------------------|-------0----5----5----0----------|--------------0----|

E|-----------------------------------------|--------------------------------------------|
B|------8----8---------8----8---------8----|-8---------8----8---------8---8---8---------|
G|------7----7---------7----7---------7----|-7---------7----7---------7---7---7---------|
D|------6----6---------6----6---------6----|-6---------6----6---------6---6---6---------|
A|------7----7---------7----7---------7----|-7---------7----7---------7---7---7----0----|
E|-0----0----0----0----0----0----0----0----|-0----0----0----0----0----0---0---0----0----|

E|---------------------------------|-------------------------------------|---------------------------------|
B|---------------------------------|--------------------------------3----|-3----3----3-----3-----3----3----|
G|-2-----2-----2----2----0----0----|-0----0----0-----0----0----0----2----|-2----2----2-----2-----2----2----|
D|-2-----2-----2----2----0----0----|-0----0----0-----0----0----0----0----|-0----0----0-----0-----0----0----|
A|-0-----0-----0----0----0----X----|------X----X-----X----X----0----0----|-0----0----0-----0-----0----0----|
E|----------------------------3----|-3----3----3-----3----3----0---------|---------------------------------|

E|---------------------------------|---------------------------------|-------------------------------------|
B|-3----3----3-----3-----3---------|---------------------------------|--------------------------------3----|
G|-2----2----2-----2-----2---------|-2-----2-----2----2----0----0----|-0----0----0-----0----0----0----2----|
D|-0----0----0-----0-----0----0----|-2-----2-----2----2----0----0----|-0----0----0-----0----0----0----0----|
A|-0----0----0-----0-----0----0----|-0-----0-----0----0----0----X----|------X----X-----X----X----0----0----|
E|---------------------------------|----------------------------3----|-3----3----3-----3----3----0---------|

E|---------------------------------|---------------------------------|--------------------------------|
B|-3----3----3-----3-----3----3----|-3----3----3-----3-----3---------|--------------------------------|
G|-2----2----2-----2-----2----2----|-2----2----2-----2-----2---------|-2------2----2----2---2---2-----|
D|-0----0----0-----0-----0----0----|-0----0----0-----0-----0----0----|-2------2----2----2---2---2-----|
A|-0----0----0-----0-----0----0----|-0----0----0-----0-----0----0----|-0------0----0----0---0---0-----|
E|---------------------------------|---------------------------------|--------------------------------|

E|-------------------------------|--------------------------------|----------------------------|
B|-------------------------------|--------------------------------|----------------------------|
G|-2---------------------2---2---|-2------2----2----2---2---2-----|-2--------------------------|
D|-2------2----2---------2---2---|-2------2----2----2---2---2-----|-2------2----2---------2----|
A|-0------0----3----4----0---0---|-0------0----0----0---0---0-----|-0------0----3----4----0----|
E|-------------------------------|--------------------------------|----------------------------|

E|---------------------------------|-------------------------------------|---------------------------------|
B|---------------------------------|--------------------------------3----|-3----3----3-----3-----3----3----|
G|-2-----2-----2----2----0----0----|-0----0----0-----0----0----0----2----|-2----2----2-----2-----2----2----|
D|-2-----2-----2----2----0----0----|-0----0----0-----0----0----0----0----|-0----0----0-----0-----0----0----|
A|-0-----0-----0----0----0----X----|------X----X-----X----X----0----0----|-0----0----0-----0-----0----0----|
E|----------------------------3----|-3----3----3-----3----3----0---------|---------------------------------|

E|---------------------------------|-----------------------------|-------------------------------------|
B|-3----3----3-----3-----3---------|-----------------------------|-------------------------------------|
G|-2----2----2-----2-----2---------|-2-----2-----2-----0----0----|-0----0----0-----0----0----0----0----|
D|-0----0----0-----0-----0----0----|-2-----2-----2-----0----0----|-0----0----0-----0----0----0----0----|
A|-0----0----0-----0-----0----0----|-0-----0-----0-----0----X----|------X----X-----X----X----X----0----|
E|---------------------------------|------------------------3----|-3----3----3-----3----3----3---------|

E|---------|-------------------|-----------------------------------------|-----------------------------------------|
B|-3-------|-3-------3---------|------8----8---------8----8---------8----|-8---------8----8---------8----8---------|
G|-2-------|-2-------2---------|------7----7---------7----7---------7----|-7---------7----7---------7----7---------|
D|-0-------|-0-------0---------|------6----6---------6----6---------6----|-6---------6----6---------6----6---------|
A|-0-------|-0-------0---------|------7----7---------7----7---------7----|-7---------7----7---------7----7---------|
E|---------|--------------0----|-0----0----0----0----0----0----0----0----|-0----0----0----0----0----0----0----0----|

E|-----------------------------------------|-----------------------------------------|
B|------8----8---------8----8---------8----|-8---------8----8---------8----8---------|
G|------7----7---------7----7---------7----|-7---------7----7---------7----7---------|
D|------6----6---------6----6---------6----|-6---------6----6---------6----6---------|
A|------7----7---------7----7---------7----|-7---------7----7---------7----7---------|
E|-0----0----0----0----0----0----0----0----|-0----0----0----0----0----0----0----0----|

E|-----------------------------------------|-----------------------------------------|
B|------8----8---------8----8---------8----|-8---------8----8---------8----8---------|
G|------7----7---------7----7---------7----|-7---------7----7---------7----7---------|
D|------6----6---------6----6---------6----|-6---------6----6---------6----6---------|
A|------7----7---------7----7---------7----|-7---------7----7---------7----7---------|
E|-0----0----0----0----0----0----0----0----|-0----0----0----0----0----0----0----0----|

E|-----------------------------------------|-----------------------------------------|
B|------8----8---------8----8---------8----|-8---------8----8---------8----8---------|
G|------7----7---------7----7---------7----|-7---------7----7---------7----7---------|
D|------6----6---------6----6---------6----|-6---------6----6---------6----6---------|
A|------7----7---------7----7---------7----|-7---------7----7---------7----7---------|
E|-0----0----0----0----0----0----0----0----|-0----0----0----0----0----0----0----0----|

E|-3------2----2-----3-----|-3----2--------------------------|-3------2----2-----3-----|
B|-3------3----3-----3-----|-3----3------3----3--------------|-3------3----3-----3-----|
G|-0------2----2-----0-----|-0----2------2----2----2---------|-0------2----2-----0-----|
D|-0------0----0-----0-----|-0----0------0----X----2---------|-0------0----0-----0-----|
A|-X------0----0-----X-----|------0------0----4----0----0----|-X------0----0-----X-----|
E|-3-----------------3-----|-3--------------------------0----|-3-----------------3-----|

E|-3----2--------------------------|---------------------------------|-----------------------------------------|
B|-3----3------3----3--------------|---------------------------------|-----------------------------------------|
G|-0----2------2----2----2---------|-5-------------------------5-----|-5----5----5----5----5----5----5----5----|
D|-0----0------0----X----2---------|-5----------5----5---------5-----|-5----5----5----5----5----5----5----5----|
A|------0------0----4----0----0----|-3-----0----5----5----0----3-----|-3----3----3----3----3----3----3----3----|
E|-3--------------------------0----|-------0----3----3----0----------|-----------------------------------------|

E|---------------------------------|-----------------------------------------|---------------------------------|
B|---------------------------------|-----------------------------------------|---------------------------------|
G|-5-------------------------5-----|-5----5----5----5----5----5----5---------|-7-------------------------7-----|
D|-5----------5----5---------5-----|-5----5----5----5----5----5----5----0----|-7----------7----7---------7-----|
A|-3-----0----5----5----0----3-----|-3----3----3----3----3----3----3----0----|-5-----0----7----7----0----5-----|
E|-------0----3----3----0----------|------------------------------------0----|-5-----0----5----5----0----5-----|

E|-----------------------------------------|-----------------------------------------|
B|-----------------------------------------|------8----8---------8----8---------8----|
G|-7----7----7----7----7----7----7---------|------7----7---------7----7---------7----|
D|-7----7----7----7----7----7----7---------|------6----6---------6----6---------6----|
A|-5----5----5----5----5----5----5---------|------7----7---------7----7---------7----|
E|-5----5----5----5----5----5----5----0----|-0----0----0----0----0----0----0----0----|

E|-----------------------------------------|---------------------------------|-------------------------------------|
B|-8---------8----8---------8----8---------|---------------------------------|--------------------------------3----|
G|-7---------7----7---------7----7---------|-2-----2-----2----2----0----0----|-0----0----0-----0----0----0----2----|
D|-6---------6----6---------6----6---------|-2-----2-----2----2----0----0----|-0----0----0-----0----0----0----0----|
A|-7---------7----7---------7----7---------|-0-----0-----0----0----0----X----|------X----X-----X----X----0----0----|
E|-0----0----0----0----0----0----0----0----|----------------------------3----|-3----3----3-----3----3----0---------|

E|---------------------------------|---------------------------------|---------------------------------|
B|-3----3----3-----3-----3----3----|-3----3----3-----3-----3---------|---------------------------------|
G|-2----2----2-----2-----2----2----|-2----2----2-----2-----2---------|-2-----2-----2----2----0----0----|
D|-0----0----0-----0-----0----0----|-0----0----0-----0-----0----0----|-2-----2-----2----2----0----0----|
A|-0----0----0-----0-----0----0----|-0----0----0-----0-----0----0----|-0-----0-----0----0----0----X----|
E|---------------------------------|---------------------------------|----------------------------3----|

E|-------------------------------------|---------------------------------|---------------------------------|
B|--------------------------------3----|-3----3----3-----3-----3----3----|-3----3----3-----3-----3---------|
G|-0----0----0-----0----0----0----2----|-2----2----2-----2-----2----2----|-2----2----2-----2-----2---------|
D|-0----0----0-----0----0----0----0----|-0----0----0-----0-----0----0----|-0----0----0-----0-----0----0----|
A|------X----X-----X----X----0----0----|-0----0----0-----0-----0----0----|-0----0----0-----0-----0----0----|
E|-3----3----3-----3----3----0---------|---------------------------------|---------------------------------|

E|---------------------------------|-------------------------------------|---------------------------------|
B|---------------------------------|--------------------------------3----|-3----3----3-----3-----3----3----|
G|-2-----2-----2----2----0----0----|-0----0----0-----0----0----0----2----|-2----2----2-----2-----2----2----|
D|-2-----2-----2----2----0----0----|-0----0----0-----0----0----0----0----|-0----0----0-----0-----0----0----|
A|-0-----0-----0----0----0----X----|------X----X-----X----X----0----0----|-0----0----0-----0-----0----0----|
E|----------------------------3----|-3----3----3-----3----3----0---------|---------------------------------|

E|---------------------------------|---------|-3-------|---------|---------|-----------------------------------------|
B|-3----3----3-----3-----3---------|---------|-3-------|-3-------|-3-------|-14---14---14---14---14---14---14--------|
G|-2----2----2-----2-----2---------|-2-------|-0-------|-2-------|-2-------|-14---14---14---14---14---14---14--------|
D|-0----0----0-----0-----0----0----|-2-------|-0-------|-0-------|-0-------|-14---14---14---14---14---14---14--------|
A|-0----0----0-----0-----0----0----|-0-------|-X-------|-0-------|-0-------|------------------------------------0----|
E|---------------------------------|---------|-3-------|---------|---------|-----------------------------------------|

E|-----------------------------------------|-----------------------------------------|
B|-15---15---15---15---15---15---15--------|-15---15---15---15---15---15---15---15---|
G|-16---16---16---16---16---16---16--------|-14---14---14---14---14---14---14---14---|
D|-17---17---17---17---17---17---17---0----|-12---12---12---12---12---12---12---12---|
A|-----------------------------------------|-----------------------------------------|
E|-----------------------------------------|-----------------------------------------|

E|-----------------------------------------|-----------------------------------------|
B|-15---15---15---15---15---15---15--------|-14---14---14---14---14---14---14--------|
G|-14---14---14---14---14---14---14--------|-14---14---14---14---14---14---14--------|
D|-12---12---12---12---12---12---12--------|-14---14---14---14---14---14---14--------|
A|------------------------------------0----|------------------------------------0----|
E|-----------------------------------------|-----------------------------------------|

E|-----------------------------------------|-----------------------------------------|
B|-15---15---15---15---15---15---15--------|-15---15---15---15---15---15---15---15---|
G|-16---16---16---16---16---16---16--------|-14---14---14---14---14---14---14---14---|
D|-17---17---17---17---17---17---17---0----|-12---12---12---12---12---12---12---12---|
A|-----------------------------------------|-----------------------------------------|
E|-----------------------------------------|-----------------------------------------|

E|-----------------------------------------|-----------------------------------------|
B|-15---15---15---15---15---15---15--------|-14---14---14---14---14---14---14--------|
G|-14---14---14---14---14---14---14--------|-14---14---14---14---14---14---14--------|
D|-12---12---12---12---12---12---12--------|-14---14---14---14---14---14---14--------|
A|------------------------------------0----|------------------------------------0----|
E|-----------------------------------------|-----------------------------------------|

E|-----------------------------------------|-----------------------------------------|
B|-15---15---15---15---15---15---15--------|-15---15---15---15---15---15---15---15---|
G|-16---16---16---16---16---16---16--------|-14---14---14---14---14---14---14---14---|
D|-17---17---17---17---17---17---17---0----|-12---12---12---12---12---12---12---12---|
A|-----------------------------------------|-----------------------------------------|
E|-----------------------------------------|-----------------------------------------|

E|-----------------------------------------|-----------------------------------------|
B|-15---15---15---15---15---15---15--------|-14---14---14---14---14---14---14--------|
G|-14---14---14---14---14---14---14--------|-14---14---14---14---14---14---14--------|
D|-12---12---12---12---12---12---12--------|-14---14---14---14---14---14---14--------|
A|------------------------------------0----|------------------------------------0----|
E|-----------------------------------------|-----------------------------------------|

E|-----------------------------------------|-----------------------------------------|
B|-15---15---15---15---15---15---15--------|-15---15---15---15---15---15---15---15---|
G|-16---16---16---16---16---16---16--------|-14---14---14---14---14---14---14---14---|
D|-17---17---17---17---17---17---17---0----|-12---12---12---12---12---12---12---12---|
A|-----------------------------------------|-----------------------------------------|
E|-----------------------------------------|-----------------------------------------|

E|-----------------------------------------|-----------------------------------------|
B|-15---15---15---15---15---15---15--------|-5----5----5----5----5----5----5---------|
G|-14---14---14---14---14---14---14--------|-6----6----6----6----6----6----6---------|
D|-12---12---12---12---12---12---12--------|-7----7----7----7----7----7----7---------|
A|------------------------------------0----|------------------------------------0----|
E|-----------------------------------------|-----------------------------------------|

E|-----------------------------------------|-----------------------------------------|
B|-3----3----3----3----3----3----3---------|-3----3----3----3----3----3----3----3----|
G|-4----4----4----4----4----4----4---------|-2----2----2----2----2----2----2----2----|
D|-5----5----5----5----5----5----5----0----|-0----0----0----0----0----0----0----0----|
A|-----------------------------------------|-----------------------------------------|
E|-----------------------------------------|-----------------------------------------|

E|-----------------------------------------|-----------------------------------------|
B|-3----3--------------3----3--------------|-5----5----5----5----5----5----5---------|
G|-2----2--------------2----2--------------|-6----6----6----6----6----6----6---------|
D|-0----3----4----0----0----0----0----0----|-7----7----7----7----7----7----7---------|
A|-----------------------------------------|------------------------------------0----|
E|-----------------------------------------|-----------------------------------------|

E|-----------------------------------------|-----------------------------------------|
B|-3----3----3----3----3----3----3---------|-3----3----3----3----3----3----3----3----|
G|-4----4----4----4----4----4----4---------|-2----2----2----2----2----2----2----2----|
D|-5----5----5----5----5----5----5----0----|-0----0----0----0----0----0----0----0----|
A|-----------------------------------------|-----------------------------------------|
E|-----------------------------------------|-----------------------------------------|

E|-----------------------------------------|-----------------------------------------|
B|-3----3--------------3----3--------------|-5----5----5----5----5----5----5----3----|
G|-2----2--------------2----2--------------|-2----2----2----2----2----2----2----0----|
D|-0----3----4----0----0----0----0----0----|-2----2----2----2----2----2----2----0----|
A|-----------------------------------------|-----------------------------------------|
E|-----------------------------------------|-----------------------------------------|

E|-----------------------------------------|-----------------------------------------|
B|-3----3----3----3----3----3----3----3----|-3----3----3----3----3----3----3----3----|
G|-0----0----0----0----0----0----0----2----|-2----2----2----2----2----2----2----2----|
D|-0----0----0----0----0----0----0----0----|-0----0----0----0----0----0----0----0----|
A|-----------------------------------------|-----------------------------------------|
E|-----------------------------------------|-----------------------------------------|

E|-----------------------------------------|-----------------------------------------|
B|-3----3----3----3----3----3----3----3----|-------------------------------0---------|
G|-2----2----2----2----2----2----2----2----|-2----2----2---------2----2----0---------|
D|-0----0----0----0----0----0----0----0----|-2----2----2---------2----2--------------|
A|-----------------------------------------|-0----0----0----0----0----0--------------|
E|-----------------------------------------|------------------------------------3----|

E|-------------------------------------|-----------------------------------------|-----------------------------------------|
B|---------------------------3---------|------3----3----3----3----3----3----3----|-3----3----3----3----3----3----3---------|
G|------0----0----------0---------2----|-2----2----2----2----2----2----2----2----|-2----2----2----2----2----2----2----2----|
D|-----------0-----0--------------0----|-0----0----0----0----0----0----0----0----|-0----0----0----0----0----0----0----2----|
A|-------------------------------------|-----------------------------------------|------------------------------------0----|
E|-3-----------------------------------|-----------------------------------------|-----------------------------------------|

E|--------------------------------3----|-3----3----3----3----3----3----3---------|-------------------------------------|
B|--------------------------------3----|-3----3----3----3----3----3----3----3----|-3----3----3----3----3-----3----3----|
G|-2----2----2----2----2-----0----0----|-0----0----0----0----0----0----0----2----|-2----2----2----2----2-----2----2----|
D|-2----2----2----2----2-----0----0----|-0----0----0----0----0----0----0----0----|-0----0----0----0----0-----0----0----|
A|-0----0----0----0----0-----0----X----|------X----X----X----X----X----X----0----|-0----0----0----0----0-----0----0----|
E|---------------------------0----3----|-3----3----3----3----3----3----3---------|-------------------------------------|

E|-------------------------------------|--------------------------------3----|-3----3----3----3----3----3----3---------|
B|-3----3----3----3----3-----3---------|--------------------------------3----|-3----3----3----3----3----3----3----3----|
G|-2----2----2----2----2-----2----2----|-2----2----2----2----2-----0----0----|-0----0----0----0----0----0----0----2----|
D|-0----0----0----0----0-----0----2----|-2----2----2----2----2-----0----0----|-0----0----0----0----0----0----0----0----|
A|-0----0----0----0----0-----0----0----|-0----0----0----0----0-----0----X----|------X----X----X----X----X----X----0----|
E|-------------------------------------|---------------------------0----3----|-3----3----3----3----3----3----3---------|

E|-------------------------------------|-------------------------------------|--------------------------------3----|
B|-3----3----3----3----3-----3----3----|-3----3----3----3----3-----3---------|--------------------------------3----|
G|-2----2----2----2----2-----2----2----|-2----2----2----2----2-----2----2----|-2----2----2----2----2-----0----0----|
D|-0----0----0----0----0-----0----0----|-0----0----0----0----0-----0----2----|-2----2----2----2----2-----0----0----|
A|-0----0----0----0----0-----0----0----|-0----0----0----0----0-----0----0----|-0----0----0----0----0-----0----X----|
E|-------------------------------------|-------------------------------------|---------------------------0----3----|

E|-3----3----3----3----3----3----3---------|-------------------------------------|-------------------------------------|
B|-3----3----3----3----3----3----3----3----|-3----3----3----3----3-----3----3----|-3----3----3----3----3-----3---------|
G|-0----0----0----0----0----0----0----2----|-2----2----2----2----2-----2----2----|-2----2----2----2----2-----2----2----|
D|-0----0----0----0----0----0----0----0----|-0----0----0----0----0-----0----0----|-0----0----0----0----0-----0----2----|
A|------X----X----X----X----X----X----0----|-0----0----0----0----0-----0----0----|-0----0----0----0----0-----0----0----|
E|-3----3----3----3----3----3----3---------|-------------------------------------|-------------------------------------|

E|--------------------------------3----|-3----3----3----3----3----3----3---------|-------------------------------------|
B|--------------------------------3----|-3----3----3----3----3----3----3----3----|-3----3----3----3----3-----3----3----|
G|-2----2----2----2----2-----0----0----|-0----0----0----0----0----0----0----2----|-2----2----2----2----2-----2----2----|
D|-2----2----2----2----2-----0----0----|-0----0----0----0----0----0----0----0----|-0----0----0----0----0-----0----0----|
A|-0----0----0----0----0-----0----X----|------X----X----X----X----X----X----0----|-0----0----0----0----0-----0----0----|
E|---------------------------0----3----|-3----3----3----3----3----3----3---------|-------------------------------------|

E|-------------------------------------|--------------------------------3----|-3----3----3----3----3----3----3---------|
B|-3----3----3----3----3-----3---------|--------------------------------3----|-3----3----3----3----3----3----3----3----|
G|-2----2----2----2----2-----2----2----|-2----2----2----2----2-----0----0----|-0----0----0----0----0----0----0----2----|
D|-0----0----0----0----0-----0----2----|-2----2----2----2----2-----0----0----|-0----0----0----0----0----0----0----0----|
A|-0----0----0----0----0-----0----0----|-0----0----0----0----0-----0----X----|------X----X----X----X----X----X----0----|
E|-------------------------------------|---------------------------0----3----|-3----3----3----3----3----3----3---------|

E|-------------------------------------|-------------------------------------|--------------------------------3----|
B|-3----3----3----3----3-----3----3----|-3----3----3----3----3-----3---------|--------------------------------3----|
G|-2----2----2----2----2-----2----2----|-2----2----2----2----2-----2----2----|-2----2----2-----2----2----0----0----|
D|-0----0----0----0----0-----0----0----|-0----0----0----0----0-----0----2----|-2----2----2-----2----2----0----0----|
A|-0----0----0----0----0-----0----0----|-0----0----0----0----0-----0----0----|-0----0----0-----0----0----0----X----|
E|-------------------------------------|-------------------------------------|--------------------------------3----|

E|-3----3----3----3----3----3----3---------|-------------------------|--------------------3-----3-----|
B|-3----3----3----3----3----3----3---------|-3------3----3-----3-----|-3----3-------------3-----3-----|
G|-0----0----0----0----0----0----0----0----|-2------2----2-----2-----|-2----2-------------0-----0-----|
D|-0----0----0----0----0----0----0----0----|-0------0----0-----0-----|-0----0-----0---0---0-----0-----|
A|------X----X----X----X----X----X----0----|-0------0----0-----0-----|-0----0-----0---0---X-----X-----|
E|-3----3----3----3----3----3----3---------|-------------------------|------------0---0---3-----3-----|

E|-------------------------|--------------------3-----3-----|-----------------------------|
B|-3------3----3-----3-----|-3----3-------------3-----3-----|-3----------3----------3-----|
G|-2------2----2-----2-----|-2----2-------------0-----0-----|-2-----%----2----%-----2-----|
D|-0------0----0-----0-----|-0----0-----0---0---0-----0-----|-0-----%----0----%-----0-----|
A|-0------0----0-----0-----|-0----0-----0---0---X-----X-----|-0----------0----------0-----|
E|-------------------------|------------0---0---3-----3-----|-----------------------------|

E|--------3-----3-----|-----------------------------------------------------------------|
B|-3------3-----3-----|-----------------------------------------------------------------|
G|-2------0-----0-----|-2---2---2---2---2---2---2---2---2---2---2---2---2---2---2---2---|
D|-0------0-----0-----|-2---2---2---2---2---2---2---2---2---2---2---2---2---2---2---2---|
A|-0------X-----X-----|-0---0---0---0---0---0---0---0---0---0---0---0---0---0---0---0---|
E|--------3-----3-----|-----------------------------------------------------------------|

E|-------------------------------------------------------|--------------------|
B|-------------------------------------------------------|--------------------|
G|-2---2---2---2---2---2---2---2---2---2---2---2---2-----|-2-----%-----%------|
D|-2---2---2---2---2---2---2---2---2---2---2---2---2-----|-2-----%-----%------|
A|-0---0---0---0---0---0---0---0---0---0---0---0---0-----|-0------------------|
E|-------------------------------------------------------|--------------------|
ACDC - Shoot To Thrill
ACDC - Shoot To Thrill.gp3