ACDC - Sin City (2)

ACDC - Sin City (2)

AC-DC



Title: Sin City
Album: 
Artist: AC/DC
Author: 

Track 1: bass
G|-------------------|-------------------------------------|---------|---------|---------------------|
D|-%---%-------%-----|----------------0--------------------|---------|---------|---------------------|
A|-%---%-------%-----|------0----2---------0----2----------|---------|---------|--------------2------|
E|-------------------|-3-----------------------------0-----|-0-------|-0-------|-0-----0-------------|

G|--------------------|---------------------|--------------------|---------------------|
D|-0------------------|---------------------|-0------------------|---------------------|
A|--------0------0----|-0------------2------|--------0------0----|-0------------2------|
E|--------------------|-------0-------------|--------------------|-------0-------------|

G|--------------------|---------------------|-------------------0-----|-----------------------------------------|
D|-0------------------|-------2-------------|-0-----------------------|-----------------------------------------|
A|--------0------0----|-0------------2------|--------0-----0----------|-----------------------------------------|
E|--------------------|---------------------|-------------------------|-0----0----0----0----0----0----0----0----|

G|-----------------------------------------|-----------------------------------------|
D|-----------------------------------------|-----------------------------------------|
A|-----------------------------------------|-----------------------------------------|
E|-0----0----0----0----0----0----0----0----|-0----0----0----0----0----0----0----0----|

G|-----------------------------------------|-----------------------------------------|
D|-----------------------------------------|-----------------------------------------|
A|-----------------------------------------|-----------------------------------------|
E|-0----0----0----0----0----0----0----0----|-0----0----0----0----0----0----0----0----|

G|-----------------------------------------|-----------------------------------------|
D|-----------------------------------------|-----------------------------------------|
A|-----------------------------------------|-----------------------------------------|
E|-0----0----0----0----0----0----0----0----|-0----0----0----0----0----0----0----0----|

G|-----------------------------------------|-----------------------------------------|
D|-0----0----0----0----0----0----0----0----|-0----0----0----0----0----0----0----0----|
A|-----------------------------------------|-----------------------------------------|
E|-----------------------------------------|-----------------------------------------|

G|-----------------------------------------|-----------------------------------------|
D|-0----0----0----0----0----0----0----0----|-0----0----0----0----0----0----0----0----|
A|-----------------------------------------|-----------------------------------------|
E|-----------------------------------------|-----------------------------------------|

G|-----------------------------------------|-----------------------------------------|
D|-----------------------------------------|-----------------------------------------|
A|-----------------------------------------|-----------------------------------------|
E|-0----0----0----0----0----0----0----0----|-0----0----0----0----0----0----0----0----|

G|-----------------------------------------|-----------------------------------------|
D|-----------------------------------------|-----------------------------------------|
A|-----------------------------------------|-----------------------------------------|
E|-0----0----0----0----0----0----0----0----|-0----0----0----0----0----0----0----0----|

G|-----------------------------------------|-----------------------------------------|
D|-----------------------------------------|-----------------------------------------|
A|-----------------------------------------|-----------------------------------------|
E|-0----0----0----0----0----0----0----0----|-0----0----0----0----0----0----0----0----|

G|-----------------------------------------|-----------------------------------------|
D|-----------------------------------------|-----------------------------------------|
A|-----------------------------------------|-----------------------------------------|
E|-0----0----0----0----0----0----0----0----|-0----0----0----0----0----0----0----0----|

G|-----------------------------------------|-----------------------------------------|
D|-----------------------------------------|-----------------------------------------|
A|-----------------------------------------|-----------------------------------------|
E|-0----0----0----0----0----0----0----0----|-0----0----0----0----0----0----0----0----|

G|-----------------------------------------|-----------------------------------------|
D|-----------------------------------------|-----------------------------------------|
A|-----------------------------------------|-----------------------------------------|
E|-0----0----0----0----0----0----0----0----|-0----0----0----0----0----0----0----0----|

G|-----------------------------------------|-----------------------------------------|
D|-----------------------------------------|-----------------------------------------|
A|-----------------------------------------|-----------------------------------------|
E|-0----0----0----0----0----0----0----0----|-0----0----0----0----0----0----0----0----|

G|-----------------------------------------|-----------------------------------------|
D|-----------------------------------------|-----------------------------------------|
A|-----------------------------------------|-----------------------------------------|
E|-0----0----0----0----0----0----0----0----|-0----0----0----0----0----0----3----3----|

G|-----------------------------------------|-----------------------------------------|
D|-----------------------------------------|-----------------------------------------|
A|-0----0----0----0----0----0----0----0----|-0----0----0----0----0----0----0----0----|
E|-----------------------------------------|-----------------------------------------|

G|-----------------------------------------|-----------------------------------------|
D|-----------------------------------------|-----------------------------------------|
A|-0----0----0----0----0----0----0----0----|-0----0----0----0----0----0----0----0----|
E|-----------------------------------------|-----------------------------------------|

G|-----------------------------------------|-----------------------------------------|
D|-----------------------------------------|-----------------------------------------|
A|-2----2----2----2----2----2----2----2----|-2----2----2----2----2----2----2----2----|
E|-----------------------------------------|-----------------------------------------|

G|-----------------------------------------|-----------------------------------------|
D|-----------------------------------------|-------------------------------0----2----|
A|-2----2----2----2----2----2----2----2----|-2----2----2----2----2----2--------------|
E|-----------------------------------------|-----------------------------------------|

G|-----------------------------------------|-----------------------------------------|
D|-----------------------------------------|-----------------------------------------|
A|-----------------------------------------|-----------------------------------------|
E|-0----0----0----0----0----0----0----0----|-0----0----0----0----0----0----0----0----|

G|-----------------------------------------|-----------------------------------------|
D|-----------------------------------------|-----------------------------------------|
A|-----------------------------------------|-----------------------------------------|
E|-0----0----0----0----0----0----0----0----|-0----0----0----0----0----0----0----0----|

G|-----------------------------------------|-----------------------------------------|
D|-----------------------------------------|-----------------------------------------|
A|-----------------------------------------|-----------------------------------------|
E|-0----0----0----0----0----0----0----0----|-0----0----0----0----0----0----0----0----|

G|-----------------------------------------|-----------------------------------------|
D|-----------------------------------------|-----------------------------------------|
A|-----------------------------------------|-----------------------------------------|
E|-0----0----0----0----0----0----0----0----|-0----0----0----0----0----0----0----0----|

G|-----------------------------------------|-----------------------------------------|
D|-----------------------------------------|-----------------------------------------|
A|-----------------------------------------|-----------------------------------------|
E|-0----0----0----0----0----0----0----0----|-0----0----0----0----0----0----0----0----|

G|-----------------------------------------|-----------------------------------------|
D|-----------------------------------------|-----------------------------------------|
A|-----------------------------------------|-----------------------------------------|
E|-0----0----0----0----0----0----0----0----|-0----0----0----0----0----0----0----0----|

G|-----------------------------------------|-----------------------------------------|
D|-----------------------------------------|-----------------------------------------|
A|-----------------------------------------|-----------------------------------------|
E|-0----0----0----0----0----0----0----0----|-0----0----0----0----0----0----0----0----|

G|-----------------------------------------|-----------------------------------------|
D|-----------------------------------------|-0----0----0----0----0----0----0----0----|
A|-----------------------------------------|-----------------------------------------|
E|-0----0----0----0----0----0----0----0----|-----------------------------------------|

G|-----------------------------------------|-----------------------------------------|
D|-0----0----0----0----0----0----0----0----|-0----0----0----0----0----0----0----0----|
A|-----------------------------------------|-----------------------------------------|
E|-----------------------------------------|-----------------------------------------|

G|-----------------------------------------|-----------------------------------------|
D|-0----0----0----0----0----0----0----0----|-----------------------------------------|
A|-----------------------------------------|-----------------------------------------|
E|-----------------------------------------|-0----0----0----0----0----0----0----0----|

G|-----------------------------------------|-----------------------------------------|
D|-----------------------------------------|-----------------------------------------|
A|-----------------------------------------|-----------------------------------------|
E|-0----0----0----0----0----0----0----0----|-0----0----0----0----0----0----0----0----|

G|-----------------------------------------|-----------------------------------------|
D|-----------------------------------------|-----------------------------------------|
A|-----------------------------------------|-----------------------------------------|
E|-0----0----0----0----0----0----0----0----|-0----0----0----0----0----0----0----0----|

G|-----------------------------------------|-----------------------------------------|
D|-----------------------------------------|-----------------------------------------|
A|-----------------------------------------|-----------------------------------------|
E|-0----0----0----0----0----0----0----0----|-0----0----0----0----0----0----0----0----|

G|-----------------------------------------|-----------------------------------------|
D|-----------------------------------------|-----------------------------------------|
A|-----------------------------------------|-----------------------------------------|
E|-0----0----0----0----0----0----0----0----|-0----0----0----0----0----0----0----0----|

G|-----------------------------------------|-----------------------------------------|
D|-----------------------------------------|-----------------------------------------|
A|-----------------------------------------|-----------------------------------------|
E|-0----0----0----0----0----0----0----0----|-0----0----0----0----0----0----0----0----|

G|-----------------------------------------|-----------------------------------------|
D|-----------------------------------------|-----------------------------------------|
A|-----------------------------------------|-----------------------------------------|
E|-0----0----0----0----0----0----0----0----|-0----0----0----0----0----0----0----0----|

G|-----------------------------------------|-----------------------------------------|
D|-----------------------------------------|-----------------------------------------|
A|-----------------------------------------|-----------------------------------------|
E|-0----0----0----0----0----0----0----0----|-0----0----0----0----0----0----0----0----|

G|-----------------------------------------|-----------------------------------------|
D|-0----0----0----0----0----0----0----0----|-0----0----0----0----0----0----0----0----|
A|-----------------------------------------|-----------------------------------------|
E|-----------------------------------------|-----------------------------------------|

G|-----------------------------------------|-----------------------------------------|
D|-0----0----0----0----0----0----0----0----|-0----0----0----0----0----0----0----0----|
A|-----------------------------------------|-----------------------------------------|
E|-----------------------------------------|-----------------------------------------|

G|-------------------------------------|-------------------------------------|-------------------------------------|
D|-2-----2----2----2-------------------|-0----0----0-------------------------|-------2----2----2-------------------|
A|----------------------2----2----2----|----------------0----0----0----------|----------------------2----2----2----|
E|-------------------------------------|-------------------------------3-----|-0-----------------------------------|

G|-------------------------------------|-------------------------------------|-------------------------------------|
D|-0----0----0-------------------------|-------2----2----2-------------------|-0----0----0-------------------------|
A|----------------0----0----0----------|----------------------2----2----2----|----------------0----0----0----------|
E|-------------------------------3-----|-0-----------------------------------|-------------------------------3-----|

G|-------------------------------------|-------------------------------------|-------------------------------------|
D|-------2----2----2-------------------|-0----0----0-------------------------|-------2----2----2-------------------|
A|----------------------2----2----2----|----------------0----0----0----------|----------------------2----2----2----|
E|-0-----------------------------------|-------------------------------3-----|-0-----------------------------------|

G|-------------------------------------|-------------------------------------|-------------------------------------|
D|-0----0----0-------------------------|-------2----2----2-------------------|-0----0----0-------------------------|
A|----------------0----0----0----------|----------------------2----2----2----|----------------0----0----0----------|
E|-------------------------------3-----|-0-----------------------------------|-------------------------------3-----|

G|-------------------------------------|-------------------------------------|-------------------------------------|
D|-------2----2----2-------------------|-0----0----0-------------------------|-------2----2----2-------------------|
A|----------------------2----2----2----|----------------0----0----0----------|----------------------2----2----2----|
E|-0-----------------------------------|-------------------------------3-----|-0-----------------------------------|

G|-------------------------------------|-------------------------------------|-------------------------------------|
D|-0----0----0-------------------------|-------2----2----2-------------------|-0----0----0-------------------------|
A|----------------0----0----0----------|----------------------2----2----2----|----------------0----0----0----------|
E|-------------------------------3-----|-0-----------------------------------|-------------------------------3-----|

G|-------------------------------------|-------------------------------------|-------------------------------------|
D|-------2----2----2-------------------|-0----0----0-------------------------|-------2----2----2-------------------|
A|----------------------2----2----2----|----------------0----0----0----------|----------------------2----2----2----|
E|-0-----------------------------------|-------------------------------3-----|-0-----------------------------------|

G|-------------------------------------|-------------------------------------|-----------------------------------------|
D|-0----0----0-------------------------|-------2----2----2-------------------|-0----0----0------------------------2----|
A|----------------0----0----0----------|----------------------2----2----2----|----------------0----0-------------------|
E|-------------------------------3-----|-0-----------------------------------|--------------------------0----3---------|

G|-----------------------------------------|-----------------------------------------|
D|-----------2----2----2-------------------|-0----0----0-----------------------------|
A|--------------------------2----2----2----|----------------0----0----0--------------|
E|-0----0----------------------------------|-------------------------------3----3----|

G|-----------------------------------------|-----------------------------------------|
D|-----------2----2----2-------------------|-0----0----0-----------------------------|
A|--------------------------2----2----2----|----------------0----0----0--------------|
E|-0----0----------------------------------|-------------------------------3----3----|

G|-----------------------------------------|-----------------------------------------|
D|-----------2----2----2-------------------|-0----0----0-----------------------------|
A|--------------------------2----2----2----|----------------0----0----0--------------|
E|-0----0----------------------------------|-------------------------------3----3----|

G|-----------------------------------------|-----------------------------------------|
D|-----------2----2----2-------------------|-0----0----0-----------------------------|
A|--------------------------2----2----2----|----------------0----0----0--------------|
E|-0----0----------------------------------|-------------------------------3----3----|

G|-----------------------------------------|-----------------------------------------|
D|-----------------------------------------|-----------------------------------------|
A|-0----0----0----0----0----0----0----0----|-0----0----0----0----0----0----0----0----|
E|-----------------------------------------|-----------------------------------------|

G|-----------------------------------------|-----------------------------------------|
D|-----------------------------------------|-----------------------------------------|
A|-0----0----0----0----0----0----0----0----|-0----0----0----0----0----0----0----0----|
E|-----------------------------------------|-----------------------------------------|

G|-----------------------------------------|-----------------------------------------|
D|-----------------------------------------|-----------------------------------------|
A|-2----2----2----2----2----2----2----2----|-2----2----2----2----2----2----2----2----|
E|-----------------------------------------|-----------------------------------------|

G|-----------------------------------------|-----------------------------------------|
D|-----------------------------------------|-------------------------------0----2----|
A|-2----2----2----2----2----2----2----2----|-2----2----2----2----2----2--------------|
E|-----------------------------------------|-----------------------------------------|

G|-----------------------------------------|-----------------------------------------|
D|-----------------------------------------|-----------------------------------------|
A|-----------------------------------------|-----------------------------------------|
E|-0----0----0----0----0----0----0----0----|-0----0----0----0----0----0----0----0----|

G|-----------------------------------------|-----------------------------------------|
D|-----------------------------------------|-----------------------------------------|
A|-----------------------------------------|-----------------------------------------|
E|-0----0----0----0----0----0----0----0----|-0----0----0----0----0----0----0----0----|

G|-----------------------------------------|-----------------------------------------|
D|-----------------------------------------|-----------------------------------------|
A|-----------------------------------------|-----------------------------------------|
E|-0----0----0----0----0----0----0----0----|-0----0----0----0----0----0----0----0----|

G|-----------------------------------------|-----------------------------------------|
D|-----------------------------------------|-----------------------------------------|
A|-----------------------------------------|-----------------------------------------|
E|-0----0----0----0----0----0----0----0----|-0----0----0----0----0----0----0----0----|

G|-----------------------------------------|-----------------------------------------|
D|-----------------------------------------|-----------------------------------------|
A|-----------------------------------------|-----------------------------------------|
E|-0----0----0----0----0----0----0----0----|-0----0----0----0----0----0----0----0----|

G|-----------------------------------------|-----------------------------------------|
D|-----------------------------------------|-----------------------------------------|
A|-----------------------------------------|-----------------------------------------|
E|-0----0----0----0----0----0----0----0----|-0----0----0----0----0----0----0----0----|

G|-----------------------------------------|-----------------------------------------|
D|-----------------------------------------|-----------------------------------------|
A|-----------------------------------------|-----------------------------------------|
E|-0----0----0----0----0----0----0----0----|-0----0----0----0----0----0----0----0----|

G|-----------------------------------------|-----------------------------------------|
D|-----------------------------------------|-0----0----0----0----0----0----0----0----|
A|-----------------------------------------|-----------------------------------------|
E|-0----0----0----0----0----0----0----0----|-----------------------------------------|

G|-----------------------------------------|-------------------------------------|---------|
D|-0----0----0----0----0----0----0----0----|-0----0----0----0----0----0----0-----|-0-------|
A|-----------------------------------------|-------------------------------------|---------|
E|-----------------------------------------|-------------------------------------|---------|

G|---------|--------------------|-------------------------|---------|---------------|
D|-0-------|-0------------------|-------0-----------------|---------|---------%-----|
A|---------|--------------0-----|-2-----------0-----2-----|---------|---------%-----|
E|---------|--------3-----------|-------------------------|-0-------|-0-------------|

G|---------|
D|-%-------|
A|-%-------|
E|---------|
ACDC - Sin City (2)
ACDC - Sin City (2).gp3