ACDC - Stiff Upper Lip

AC-DC



Title: Stiff Upper Lip
Album: 
Artist: 
Author: 

Track 1: Bass
G|---------|---------|---------|---------|---------|---------|---------|---------|---------|
D|-%-------|-%-------|-%-------|-%-------|-%-------|-%-------|-%-------|-%-------|-%-------|
A|-%-------|-%-------|-%-------|-%-------|-%-------|-%-------|-%-------|-%-------|-%-------|
E|---------|---------|---------|---------|---------|---------|---------|---------|---------|

G|---------|---------|---------|---------|-----------------------------------------|
D|-%-------|-%-------|-%-------|-%-------|-----------------------------------------|
A|-%-------|-%-------|-%-------|-%-------|-0----0----0----0----0----0----0----0----|
E|---------|---------|---------|---------|-----------------------------------------|

G|-----------------------------------------|-----------------------------------------|
D|-----------------------------------------|-----------------------------------------|
A|-0----0----0----0----0----0----0----0----|-0----0----0----0----0----0----0----0----|
E|-----------------------------------------|-----------------------------------------|

G|-----------------------------------------|-----------------------------------------|
D|-----------------------------------------|-----------------------------------------|
A|-0----0----0----0----0----0----0----0----|-0----0----0----0----0----0----0----0----|
E|-----------------------------------------|-----------------------------------------|

G|-----------------------------------------|-----------------------------------------|
D|-----------------------------------------|-----------------------------------------|
A|-0----0----0----0----0----0----0----0----|-0----0----0----0----0----0----0----0----|
E|-----------------------------------------|-----------------------------------------|

G|-----------------------------------------|-----------------------------------------|
D|-----------------------------------------|-----------------------------------------|
A|-0----0----0----0----0----0----0----0----|-0----0----0----0----0----0----0----0----|
E|-----------------------------------------|-----------------------------------------|

G|-----------------------------------------|-----------------------------------------|
D|-----------------------------------------|-----------------------------------------|
A|-0---------------------------------------|-0----0----0----0----0----0----0----0----|
E|------2----2----2----3----3----3----3----|-----------------------------------------|

G|-----------------------------------------|-----------------------------------------|
D|-----------------------------------------|-----------------------------------------|
A|-0---------------------------------------|-0----0----0----0----0----0----0----0----|
E|------2----2----2----3----3----3----3----|-----------------------------------------|

G|-----------------------------------------|-----------------------------------------|
D|-----------------------------------------|-0----0----0----0----0----0----0----0----|
A|-0---------------------------------------|-----------------------------------------|
E|------2----2----2----3----3----3----3----|-----------------------------------------|

G|-----------------------------------------|-----------------------------------------|
D|-0----0----0----0----0-------------------|-----------------------------------------|
A|--------------------------3----2----0----|-0----0----0----0----0----0----0----0----|
E|-----------------------------------------|-----------------------------------------|

G|-----------------------------------------|-----------------------------------------|
D|------0----0----0------------------------|-----------------------------------------|
A|-0-------------------3----3----3----0----|-0----0----0----0----0----0----0----0----|
E|-----------------------------------------|-----------------------------------------|

G|-----------------------------------------|-----------------------------------------|
D|-----------------------------------------|-----------------------------------------|
A|-0----------------------------------0----|-0----0----0----0----0----0----0----0----|
E|------2----2----2----3----3----3---------|-----------------------------------------|

G|-----------------------------------------|-----------------------------------------|
D|------0----0----0------------------------|-----------------------------------------|
A|-0-------------------3----3----3----0----|-0----0----0----0----0----0----0----0----|
E|-----------------------------------------|-----------------------------------------|

G|-----------------------------------------|-----------------------------------------|
D|-----------------------------------------|-----------------------------------------|
A|-0----------------------------------0----|-0----0----0----0----0----0----0----0----|
E|------2----2----2----3----3----3---------|-----------------------------------------|

G|-----------------------------------------|-----------------------------------------|
D|------0----0----0------------------------|-----------------------------------------|
A|-0-------------------3----3----3----0----|-0----0----0----0----0----0----0----0----|
E|-----------------------------------------|-----------------------------------------|

G|-----------------------------------------|-----------------------------------------|
D|-----------------------------------------|-----------------------------------------|
A|-0----------------------------------0----|-0----0----0----0----0----0----0----0----|
E|------2----2----2----3----3----3---------|-----------------------------------------|

G|-----------------------------------------|-----------------------------------------|
D|-----------------------------------------|-----------------------------------------|
A|-0---------------------------------------|-0----0----0----0----0----0----0----0----|
E|------2----2----2----3----3----3----3----|-----------------------------------------|

G|-----------------------------------------|-----------------------------------------|
D|-----------------------------------------|-----------------------------------------|
A|-0---------------------------------------|-0----0----0----0----0----0----0----0----|
E|------2----2----2----3----3----3----3----|-----------------------------------------|

G|-----------------------------------------|-----------------------------------------|
D|-----------------------------------------|-0----0----0----0----0----0----0----0----|
A|-0---------------------------------------|-----------------------------------------|
E|------2----2----2----3----3----3----3----|-----------------------------------------|

G|-----------------------------------------|-----------------------------------------|
D|-0----0----0----0----0----0----0----0----|-0----0----0----0----0----0----0----0----|
A|-----------------------------------------|-----------------------------------------|
E|-----------------------------------------|-----------------------------------------|

G|-----------------------------------------|-----------------------------------------|
D|-0----0----------------------------------|-----------------------------------------|
A|-----------3----3----2--------------0----|-0----0----0----0----0----0----0----0----|
E|--------------------------2----3---------|-----------------------------------------|

G|-----------------------------------------|-----------------------------------------|
D|------0----0----0------------------------|-----------------------------------------|
A|-0-------------------3----3----3----0----|-0----0----0----0----0----0----0----0----|
E|-----------------------------------------|-----------------------------------------|

G|-----------------------------------------|-----------------------------------------|
D|-----------------------------------------|-----------------------------------------|
A|-0----------------------------------0----|-0----0----0----0----0----0----0----0----|
E|------2----2----2----3----3----3---------|-----------------------------------------|

G|-----------------------------------------|-----------------------------------------|
D|-----------------------------------------|-----------------------------------------|
A|-0----------------------------------0----|-0----0----0----0----0----0----0----0----|
E|------2----2----2----3----3----3---------|-----------------------------------------|

G|-----------------------------------------|-----------------------------------------|
D|-----------------------------------------|-----------------------------------------|
A|-0----------------------------------0----|-----------------------------------------|
E|------2----2----2----3----3----3---------|-0----0----0----0----0----0----0----0----|

G|-----------------------------------------|-----------------------------------------|
D|-----------------------------------------|-0----0----0----0----0----0----0----0----|
A|-----------------------------------------|-----------------------------------------|
E|-0----0----0----0----0----0----0----0----|-----------------------------------------|

G|-----------------------------------------|-----------------------------------------|
D|-0---------------------------------------|-----------------------------------------|
A|------3----3----3----3----3--------------|-0----0----0----0----0----0----0----0----|
E|-------------------------------2----3----|-----------------------------------------|

G|-----------------------------------------|-----------------------------------------|
D|------0----0-----------------------------|-----------------------------------------|
A|-0--------------0----3----3----3----0----|-0----0----0----0----0----0----0----0----|
E|-----------------------------------------|-----------------------------------------|

G|-----------------------------------------|-----------------------------------------|
D|-----------------------------------------|-----------------------------------------|
A|-0---------------------------------------|-0----0----0----0----0----0----0----0----|
E|------2----2----2----3----3----3----4----|-----------------------------------------|

G|-----------------------------------------|-----------------------------------------|
D|------0----0----0------------------------|-----------------------------------------|
A|-0-------------------3----3----3----0----|-0----0----0----0----0----0----0----0----|
E|-----------------------------------------|-----------------------------------------|

G|-----------------------------------------|-----------------------------------------|
D|-----------------------------------------|-----------------------------------------|
A|-0----------------------------------0----|-0----0----0----0----0----0----0----0----|
E|------2----2----2----3----3----3---------|-----------------------------------------|

G|-----------------------------------------|-----------------------------------------|
D|------0----0----0------------------------|-----------------------------------------|
A|-0-------------------3----3----3----0----|-0----0----0----0----0----0----0----0----|
E|-----------------------------------------|-----------------------------------------|

G|-----------------------------------------|-----------------------------------------|
D|-----------------------------------------|-----------------------------------------|
A|-0----------------------------------0----|-0----0----0----0----0----0----0----0----|
E|------2----2----2----3----3----3---------|-----------------------------------------|

G|-----------------------------------------|-----------------------------------------|
D|-----------------------------------------|-----------------------------------------|
A|-0---------------------------------------|-0----0----0----0----0----0----0----0----|
E|------2----2----2----3----3----3----3----|-----------------------------------------|

G|-----------------------------------------|-----------------------------------------|
D|-----------------------------------------|-----------------------------------------|
A|-0---------------------------------------|-0----0----0----0----0----0----0----0----|
E|------2----2----2----3----3----3----3----|-----------------------------------------|

G|-----------------------------------------------------|----------------------|---------|
D|--------------------------%-------%-------%-------%--|------%-------%----%--|-%-------|
A|-0------------------------%-------%-------%-------%--|-0----%-------%----%--|-%-------|
E|------2----2----2----3-------3-------3-------3-------|----------------------|---------|

G|---------|---------|---------|---------|----------------------------|---------|----------------------------|
D|-%-------|-%-------|-%-------|-%-------|-%--------------------------|---------|----------------------------|
A|-%-------|-%-------|-%-------|-%-------|-%----0----0----0------0----|-0-------|-0----0----0----0------0----|
E|---------|---------|---------|---------|----------------------------|---------|----------------------------|

G|---------------------------------|-----------------------------------------|-----------------------------------------|
D|------0--------------------------|-----------------------------------------|-----------------------------------------|
A|-0----------0----3---------------|-0----0----0----0----0----0----0----0----|-0---------------------------------------|
E|-----------------------3----4----|-----------------------------------------|------2----2----2----3----3----3----3----|

G|-----------------------------------------|-----------------------------------------|
D|-----------------------------------------|-----------------------------------------|
A|-0----0----0----0----0----0----0----0----|-0---------------------------------------|
E|-----------------------------------------|------2----2----2----3----3----3----3----|

G|-----------------------------------------|-----------------------------------------|
D|-----------------------------------------|-----------------------------------------|
A|-0----0----0----0----0----0----0----0----|-0---------------------------------------|
E|-----------------------------------------|------2----2----2----3----3----3----3----|

G|-----------------------------------------|-----------------------------------------|
D|-----------------------------------------|-----------------------------------------|
A|-0----0----0----0----0----0----0----0----|-0---------------------------------------|
E|-----------------------------------------|------2----2----2----3----3----3----3----|

G|-----------------------------------------|-----------------------------------------|
D|-----------------------------------------|-----------------------------------------|
A|-0----0----0----0----0----0----0----0----|-0---------------------------------------|
E|-----------------------------------------|------2----2----2----3----3----3----3----|

G|-----------------------------------------|-----------------------------------------|
D|-----------------------------------------|-----------------------------------------|
A|-0----0----0----0----0----0----0----0----|-0---------------------------------------|
E|-----------------------------------------|------2----2----2----3----3----3----3----|

G|-----------------------------------------|-----------------------------------------|
D|-----------------------------------------|-----------------------------------------|
A|-0----0----0----0----0----0----0----0----|-0---------------------------------------|
E|-----------------------------------------|------2----2----2----3----3----3----3----|

G|-2--------------2--------------------|-2--------------2--------------------|-2--------------2--------------------|
D|------4----2----------0--------------|------4----2----------0--------------|------4----2----------0--------------|
A|---------------------------3----0----|---------------------------3----0----|---------------------------3----0----|
E|-------------------------------------|-------------------------------------|-------------------------------------|

G|----------------------------|---------|------------------------|
D|-0--------------------------|---------|-------------%-----%----|
A|------3----0----0------0----|-0-------|-0------0----%-----%----|
E|----------------------------|---------|------------------------|
ACDC - Stiff Upper Lip
ACDC - Stiff Upper Lip.gp3