ACDC - Stiff Upper Lip (Intro)

AC-DC



Title: Stiff Upper Lip
Album: Stiff Upper Lip
Artist: ACDC
Author: ACDC

Track 1: Rhythm
E|------5---------------5--------------------|---------------------------------|------5---------------5--------------------|
B|-8----5-----8----5----5-----8----5---------|----------------7-----5----------|-8----5-----8----5----5-----8----5---------|
G|-7----------7----5----------7----5----%----|-6----6---------7-----5----%-----|-7----------7----5----------7----5----%----|
D|--------------------------------------%----|------7--------------------%-----|--------------------------------------%----|
A|-0----0-----0----0----0-----0----0---------|------0----0----0-----0----------|-0----0-----0----0----0-----0----0---------|
E|-------------------------------------------|---------------------------------|-------------------------------------------|

E|---------------------------------|------5---------------5--------------------|---------------------------------|
B|----------------7-----5----------|-8----5-----8----5----5-----8----5---------|----------------7-----5----------|
G|-6----6---------7-----5----%-----|-7----------7----5----------7----5----%----|-6----6---------7-----5----%-----|
D|------7--------------------%-----|--------------------------------------%----|------7--------------------%-----|
A|------0----0----0-----0----------|-0----0-----0----0----0-----0----0---------|------0----0----0-----0----------|
E|---------------------------------|-------------------------------------------|---------------------------------|

E|------5---------------5--------------------|---------------------------------|------5---------------5--------------------|
B|-8----5-----8----5----5-----8----5---------|----------------7-----5----------|-8----5-----8----5----5-----8----5---------|
G|-7----------7----5----------7----5----%----|-6----6---------7-----5----%-----|-7----------7----5----------7----5----%----|
D|--------------------------------------%----|------7--------------------%-----|--------------------------------------%----|
A|-0----0-----0----0----0-----0----0---------|------0----0----0-----0----------|-0----0-----0----0----0-----0----0---------|
E|-------------------------------------------|---------------------------------|-------------------------------------------|

E|---------------------------------|------5--------------------------------|
B|----------------7-----5----------|-8----5-----8-----5--------------------|
G|-6----6---------7-----5----%-----|-7----------7-----5---%------%-----%---|
D|------7--------------------%-----|----------------------%------%-----%---|
A|------0----0----0-----0----------|-0----0-----0-----0--------------------|
E|---------------------------------|---------------------------------------|
ACDC - Stiff Upper Lip (Intro)
ACDC - Stiff Upper Lip (Intro).gp3