ACDC - Stiff Upper Lip (Solo)

ACDC - Stiff Upper Lip (Solo)

AC-DC



Title: Stiff Upper Lip (solo)
Album: Stiff Upper Lip
Artist: AC/DC
Author: 

Track 1: GUITARE SOLO
E|-----------------------------|-----------------------------|---------------------|
B|-7----7----9----9------------|------7----9-----7-----------|-7------7------7-----|
G|-7----7----9----9------%-----|-%----7----9-----7-----%-----|-7------7------7-----|
D|-----------------------%-----|-%---------------------%-----|---------------------|
A|-----------------------------|-----------------------------|---------------------|
E|-----------------------------|-----------------------------|---------------------|

E|--------------------|-17----17----------------|-------------------------------------|
B|-7----7-------------|-17----17----------------|------7---------5-----5----6----7----|
G|-7----7------%------|-------------------------|------7---------5--------------------|
D|-------------%------|------------19-----7-----|-7---------7-------------------------|
A|--------------------|-------------------7-----|-7-----------------------------------|
E|--------------------|-------------------------|-------------------------------------|

E|---------------------------------|----------------------------8----|-8-----5----X----5-----8----5----|
B|-----------------5-----7----5----|-5--------------------------7----|-7-----5----X----5-----7----5----|
G|-----------------5-----7----5----|-5-------------------------------|---------------------------------|
D|-7----X----7---------------------|-------7----X----7-----X---------|---------------------------------|
A|---------------------------------|---------------------------------|---------------------------------|
E|---------------------------------|---------------------------------|---------------------------------|

E|-X----8----5---------------------|-------------------------------------|-------------------------------9----10---|
B|-X----7----5-----8-----7----5----|-5-----------------------------10----|------10---13---12---10---10-------------|
G|-----------------7-----7----5----|-5-----------------------------------|-11--------------------------------------|
D|---------------------------------|------7----10---12---14--------------|-----------------------------------------|
A|---------------------------------|--------------------------X----------|-----------------------------------------|
E|---------------------------------|-------------------------------------|-----------------------------------------|

E|-11---12---9-------------------------|----------------------------3----|-8----8----8----8----8----8----8----8----|
B|----------------10---10----8---------|-8---------8----8-----8-----3----|-7----7----7----7----7----7----7----7----|
G|--------------------------------9----|-7----%----7----7-----7----------|-----------------------------------------|
D|-------------------------------------|------%--------------------------|-----------------------------------------|
A|-------------------------------------|---------------------------------|-----------------------------------------|
E|-------------------------------------|---------------------------------|-----------------------------------------|

E|------11---17---17---17----------|-8-----8----8------5-----|------5----5----5----------5----5----|
B|------10---17---17---17----------|-7-----7----7------5-----|-5----5----5----5----8-----5----5----|
G|-%-------------------------------|-------------------------|---------------------7---------------|
D|-%-------------------------7-----|-------------------------|-------------------------------------|
A|---------------------------7-----|-------------------------|-------------------------------------|
E|---------------------------------|-------------------------|-------------------------------------|

E|-5----5----5----5----5-------------------|----------------------------|----------------------------|
B|-5----5----5----5----5----5---------7----|-7----5----5----7----5------|----------------------------|
G|--------------------------5---------7----|-7----5----5----7----5------|-%------%-------------------|
D|-------------------------------7---------|----------------------------|-%------%--------------5----|
A|-----------------------------------------|----------------------------|-------------X----X---------|
E|-----------------------------------------|----------------------------|----------------------------|

E|-------------------|---------|---------|
B|-------------------|---------|---------|
G|-------------------|-%-------|-%-------|
D|-5----5----7-------|-%-------|-%-------|
A|-------------------|---------|---------|
E|-------------------|---------|---------|
ACDC - Stiff Upper Lip (Solo)
ACDC - Stiff Upper Lip (Solo).gp3