ACDC - T.N.T. (Solo)

AC-DC



Title: T.N.T. (solo)
Album: AC/DC live
Artist: AC/DC
Author: 

Track 1: Guitare solo
E|--------------------|-----------------------------|---------|----------------------|
B|--------------------|-----------------------------|---------|----------------------|
G|-%------------------|-------%---------------------|---------|----------------------|
D|-%------7-----5-----|-2-----%-----5----5-----7----|-7-------|----------------------|
A|--------7-----5-----|-2-----------5----5-----7----|-7-------|-12------12---12------|
E|--------5-----3-----|-0-----------3----3-----5----|-5-------|------------------15--|

E|-------------------------------------|-------------15------------------------|--------------------------------12--10--------------|
B|-------------------------------------|-------------------------------8---8---|-8----------------------10--12----------10--12--12--|
G|-------------12----------------------|---------------------------------------|-------9---7---9----9-------------------------------|
D|-----------------14--12--------------|---------------------------------------|----------------------------------------------------|
A|-12-----12---------------14--12------|-14--12--------------------------------|----------------------------------------------------|
E|---------------------------------15--|---------15-------12----12-------------|----------------------------------------------------|

E|-12----------11--11---12---11----12--12--10----------|-------------------10---10--------12--10----------|
B|-----11--12----------------------------------12--11--|-10------11---11---12---12----11----------12------|
G|-----------------------------------------------------|-----12---------------------------------------12--|
D|-----------------------------------------------------|--------------------------------------------------|
A|-----------------------------------------------------|--------------------------------------------------|
E|-----------------------------------------------------|--------------------------------------------------|

E|---------------------------------------------15--|-12------------------------------------------------|
B|-10--------------------------------------12------|-----15--12----------------------------------------|
G|------X---9---9---9---X---12--12----X------------|-------------15--14--12----------------------------|
D|-------------------------------------------------|-------------------------14--12--------------------|
A|-------------------------------------------------|---------------------------------14----14----14----|
E|-------------------------------------------------|---------------------------------------------------|

E|-18-----18---18----18----18----|-18------|-------------|---------|
B|-------------------------------|---------|-------------|---------|
G|-------------------------------|---------|-------------|---------|
D|-------------------------------|---------|-7-----5-----|-2-------|
A|-------------------------------|---------|-7-----5-----|-2-------|
E|-------------------------------|---------|-5-----3-----|-0-------|
ACDC - T.N.T. (Solo)
ACDC - T.N.T. (Solo).gp3