ACDC - The Furor

AC-DC



Title: The Furor
Album: Ballbreaker
Artist: AD/DC
Author: Malcolm Young / Angus Young

Track 1: Guitare 1
E|-----------------------------------------------------------|-----------------------------------------------------------|
B|-------------3---3---3-------3---------------3-------------|-------------3---3---3-------3-----------------------------|
G|---------2---2---2-------2-------------------2--------2----|-2-------2---2---2-----------------------2-----------------|
D|-3---0---0---0---0-------0-------3---0---0---0--------0----|-3---0---0---0---0-------0-------3---0---0---0--------0----|
A|-------------------------------------------------3---------|-------------------------------------------------3----0----|
E|-----------------------------------------------------------|-----------------------------------------------------------|

E|-----------------------------------------------------------|-----------------------------------------------------------|
B|-------------3---3---3-------3---------------3-------------|-------------3---3---3-------3-----------------------------|
G|-2-------2-----------2---2---2-----------2---2--------2----|-2-------2---2---2---2---2---------------2------------2----|
D|-3---0---0-----------------------3---0---0---0--------0----|-3---0---0---------------0-------3---0---0---0--------0----|
A|-------------------------------------------------3---------|-------------------------------------------------3---------|
E|-----------------------------------------------------------|-----------------------------------------------------------|

E|-----------------------------------------------------------|-----------------------------------------------------------|
B|-------------3---3---3-------3-----------------------------|-------------3---3---3-------3------------------------3----|
G|-2-------2---2---2---2---2---------------2------------2----|-2-------2---2---2---2---2---------------2---2---0----2----|
D|-3---0---0---------------0-------3---0---0---0--------0----|-3---0---0---------------0-------3---0---0---0--------0----|
A|-------------------------------------------------3---------|-------------------------------------------------3---------|
E|-----------------------------------------------------------|-----------------------------------------------------------|

E|-------------5-------5-------------------------------------|-----------------------------------------------------------|
B|-------------3---3---3-------3---------------3-------------|-------------3---3---3-------3-----------------------------|
G|-2-------2---2---2---2---2---------------2---2---0----2----|-2-------2---2---2---2---2---------------2-------0----2----|
D|-3---0---0---------------0-------3---0---0------------0----|-3---0---0---------------0-------3---0---0---0--------0----|
A|-------------------------------------------------3---------|-------------------------------------------------3---------|
E|-----------------------------------------------------------|-----------------------------------------------------------|

E|-------------5-------5-------5-----------------------------|-----------------------------------------------------------|
B|-------------3---3---3---3---3---------------3-------------|-------------3---3---3-------3---------------3-------------|
G|---------2---2---2---2---2---2-----------2---2---0----2----|-2-------2---2---2---2---2---2-----------2---2---0----2----|
D|-3---0---0---------------0-------3---0---0------------0----|-3---0---0---------------0-------3---0---0------------0----|
A|-------------------------------------------------3---------|-------------------------------------------------3---------|
E|-----------------------------------------------------------|-----------------------------------------------------------|

E|----------3---3---3----3---3--------3---3-------------------|----------3---------------------------------------------|
B|----------3---3---3----3---3--------3---3-------------------|----------3------------3------------3-------3-------3---|
G|----------0---0---0----0---0----0---0---0---0---0---0---0---|-0----0---0---0----0---0---0----0---0---0---0---0---0---|
D|-0----0-----------0--------0----0-----------0---------------|-0----0-------0----0-------0----0-------0---0---0---0---|
A|------------------------------------------------------------|--------------------------------------------------------|
E|-3-------------------------3--------------------------------|-3------------3------------3------------3-------3-------|

E|--------------------------------------------------------------|-----------------------------------------------------------|
B|----------3---3---3-------3-------3-------3-------3-------3---|----------3-------3-------3------------3-------3-----------|
G|-2----2---2---2---2---2-----------2-------0-------0-------0---|------0---0-------0-------0---0--------0-------0-----------|
D|-0--------0---0-------0---------------------------------------|-----------------------------------------------------------|
A|------------------------------3-------3-------3-------3-------|-1----1-------1-------1-------1----1-------1-------1-------|
E|--------------------------------------------------------------|-------------------------------------------------------3---|

E|--------------------------------------------------------------|-----------------------------------------------------------|
B|----------3---3---3-------3-------3-------3-------3-------3---|----------3-------3-------3------------3-------3-----------|
G|-2----2---2---2---2---2-----------2-------0-------0-------0---|------0---0-------0-------0---0--------0-------0-----------|
D|-0--------0---0-------0---------------------------------------|-----------------------------------------------------------|
A|------------------------------3-------3-------3-------3-------|-1----1-------1-------1-------1----1-------1-------1-------|
E|--------------------------------------------------------------|-------------------------------------------------------3---|

E|--------------------------------------------------------------|-----------------------------------------------------------|
B|----------3---3---3-------3-------3-------3-------3-------3---|----------3-------3-------3------------3-------3-----------|
G|-2----2---2---2---2---2-----------2-------0-------0-------0---|------0---0-------0-------0---0--------0-------0-----------|
D|-0--------0---0-------0---------------------------------------|-----------------------------------------------------------|
A|------------------------------3-------3-------3-------3-------|-1----1-------1-------1-------1----1-------1-------1-------|
E|--------------------------------------------------------------|-------------------------------------------------------3---|

E|----------------------------------3-----|-------3-------------------------------|
B|------------------------0-----0---0-----|-3-----3-------------------------------|
G|-------0---0---0----0---0-----0---0-----|-0-----0-------------------------------|
D|-0-----0---0---0----0---0-----0---0-----|-0-------------------------3-----------|
A|----------------------------------------|---------------------------3-----3-----|
E|-3-----3---3---3----3-------------3-----|-3---------3---0---3---0---1-----0-----|

E|-----------------------------------------------------------|--------------------------------------------------------------|
B|----------3-------3-------3------------3-------3-------3---|----------3-------3-------3---3---3-------3-------3-------3---|
G|-2----2-------2-------2----------------0-------0-------0---|----------0-------0-------0---0---0-------0-------0-------0---|
D|-0----0-------0-------0------------------------------------|--------------------------------------------------------------|
A|------------------------------3----3-------3-------3-------|-1----1-------1-------1-------1-------1-------1-------1-------|
E|-----------------------------------------------------------|--------------------------------------------------------------|

E|-----------------------------------------------------------|--------------------------------------------------------------|
B|----------3-------3-------3------------3-------3-------3---|----------3-------3-------3---3---3-------3-------3-------3---|
G|-2----2-------2-------2----------------0-------0-------0---|----------0-------0-------0---0---0-------0-------0-------0---|
D|-0----0-------0-------0------------------------------------|--------------------------------------------------------------|
A|------------------------------3----3-------3-------3-------|-1----1-------1-------1-------1-------1-------1-------1-------|
E|-----------------------------------------------------------|------------------3-------3-----------------------3-------3---|

E|-----------------------------------------------------------|--------------------------------------------------------------|
B|----------3-------3-------3------------3-------3-------3---|----------3-------3-------3---3---3-------3-------3-------3---|
G|-2----2-------2-------2----------------0-------0-------0---|----------0-------0-------0---0---0-------0-------0-------0---|
D|-0----0-------0-------0------------------------------------|--------------------------------------------------------------|
A|------------------------------3----3-------3-------3-------|-1----1-------1-------1-------1-------1-------1-------1-------|
E|-----------------------------------------------------------|------------------3-------3-----------------------3-------3---|

E|-------3---------------3---3-----3-------3-------3---|------3---3-------3-------3---3-----3-------3-------3---|
B|-------3-------3-------3---3-----3-------3-------3---|------3---3-------3-------3---3-----3-------3-------3---|
G|-0---------0-------0-------0---------0-------0-------|-0------------0-------0-------0---------0-------0-------|
D|-0---------0-------0-------0---------0-------0-------|-0------------0-------0-------0---------0-------0-------|
A|-----------------------------------------------------|--------------------------------------------------------|
E|-3---------3-------3-------3---------3-------3-------|-3------------3-------3-------3---------3-------3-------|

E|-----------------------------------------------------------|--------------------------------------------------------------|
B|----------3-------3-------3------------3-------3-------3---|----------3-------3-------3---3---3-------3-------3-------3---|
G|-2----2-------2-------2----------------0-------0-------0---|----------0-------0-------0---0---0-------0-------0-------0---|
D|-0----0-------0-------0------------------------------------|--------------------------------------------------------------|
A|------------------------------3----3-------3-------3-------|-1----1-------1-------1-------1-------1-------1-------1-------|
E|-----------------------------------------------------------|--------------------------------------------------------------|

E|-----------------------------------------------------------|--------------------------------------------------------------|
B|----------3-------3-------3------------3-------3-------3---|----------3-------3-------3---3---3-------3-------3-------3---|
G|-2----2-------2-------2----------------0-------0-------0---|----------0-------0-------0---0---0-------0-------0-------0---|
D|-0----0-------0-------0------------------------------------|--------------------------------------------------------------|
A|------------------------------3----3-------3-------3-------|-1----1-------1-------1-------1-------1-------1-------1-------|
E|-----------------------------------------------------------|------------------3-------3-----------------------3-------3---|

E|-----------------------------------------------------------|--------------------------------------------------------------|
B|----------3-------3-------3------------3-------3-------3---|----------3-------3-------3---3---3-------3-------3-------3---|
G|-2----2-------2-------2----------------0-------0-------0---|----------0-------0-------0---0---0-------0-------0-------0---|
D|-0----0-------0-------0------------------------------------|--------------------------------------------------------------|
A|------------------------------3----3-------3-------3-------|-1----1-------1-------1-------1-------1-------1-------1-------|
E|-----------------------------------------------------------|------------------3-------3-----------------------3-------3---|

E|-------3---------------3---3-----3-------3-------3---|------3---3-------3-------3---3-----3-------3-------3---|
B|-------3-------3-------3---3-----3-------3-------3---|------3---3-------3-------3---3-----3-------3-------3---|
G|-0---------0-------0-------0---------0-------0-------|-0------------0-------0-------0---------0-------0-------|
D|-0---------0-------0-------0---------0-------0-------|-0------------0-------0-------0---------0-------0-------|
A|-----------------------------------------------------|--------------------------------------------------------|
E|-3---------3-------3-------3---------3-------3-------|-3------------3-------3-------3---------3-------3-------|

E|-5----5---5---5---5-----------10---10--10--10--10--10--0---|-12--------------------------------------------------------|
B|-6----6---6---6---6---6---11--11---11--11--11--11--11--0---|-13---13--13--13--13------13--12-------12--12--12------0---|
G|-7----7---7---7---7---7---12--12---12----------------------|-12---12--------------12------12---12--12--12--12--12------|
D|-----------------------------------------------------------|-----------------------------------------------------------|
A|-----------------------------------------------------------|-----------------------------------------------------------|
E|-----------------------------------------------------------|-----------------------------------------------------------|

E|-5----5---5---5---5---5----10-------10--10--10--10--0---|-------------------------------------------------0---|
B|-6----6---6---6---6---6----11---11--11--11--11--11--0---|-13-------13--13--13------13--12----12--12---12--0---|
G|-7----7-------------------------12----------------------|------12--12--12--12--12--12--12----12--12---12------|
D|--------------------------------------------------------|------------------------------------12--12---12------|
A|--------------------------------------------------------|-----------------------------------------------------|
E|--------------------------------------------------------|-----------------------------------------------------|

E|-----------------------------------------------------------|-----------------------------------------------------------|
B|-------------3---3---3-------3---------------3-------------|-------------3---3---3-------3-----------------------------|
G|---------2---2---2-------2-------------------2--------2----|-2-------2---2---2-----------------------2-----------------|
D|-3---0---0---0---0-------0-------3---0---0---0--------0----|-3---0---0---0---0-------0-------3---0---0---0--------0----|
A|-------------------------------------------------3---------|-------------------------------------------------3----0----|
E|-----------------------------------------------------------|-----------------------------------------------------------|

E|-----------------------------------------------------------|-----------------------------------------------------------|
B|-------------3---3---3-------3---------------3-------------|-------------3---3---3-------3-----------------------------|
G|-2-------2-----------2---2---2-----------2---2--------2----|-2-------2---2---2---2---2---------------2------------2----|
D|-3---0---0-----------------------3---0---0---0--------0----|-3---0---0---------------0-------3---0---0---0--------0----|
A|-------------------------------------------------3---------|-------------------------------------------------3---------|
E|-----------------------------------------------------------|-----------------------------------------------------------|

E|-----------------------------------------------------------|--------------------------------------------------------------|
B|----------3-------3-------3------------3-------3-------3---|----------3-------3-------3---3---3-------3-------3-------3---|
G|-2----2-------2-------2----------------0-------0-------0---|----------0-------0-------0---0---0-------0-------0-------0---|
D|-0----0-------0-------0------------------------------------|--------------------------------------------------------------|
A|------------------------------3----3-------3-------3-------|-1----1-------1-------1-------1-------1-------1-------1-------|
E|-----------------------------------------------------------|--------------------------------------------------------------|

E|-----------------------------------------------------------|--------------------------------------------------------------|
B|----------3-------3-------3------------3-------3-------3---|----------3-------3-------3---3---3-------3-------3-------3---|
G|-2----2-------2-------2----------------0-------0-------0---|----------0-------0-------0---0---0-------0-------0-------0---|
D|-0----0-------0-------0------------------------------------|--------------------------------------------------------------|
A|------------------------------3----3-------3-------3-------|-1----1-------1-------1-------1-------1-------1-------1-------|
E|-----------------------------------------------------------|------------------3-------3-----------------------3-------3---|

E|-----------------------------------------------------------|--------------------------------------------------------------|
B|----------3-------3-------3------------3-------3-------3---|----------3-------3-------3---3---3-------3-------3-------3---|
G|-2----2-------2-------2----------------0-------0-------0---|----------0-------0-------0---0---0-------0-------0-------0---|
D|-0----0-------0-------0------------------------------------|--------------------------------------------------------------|
A|------------------------------3----3-------3-------3-------|-1----1-------1-------1-------1-------1-------1-------1-------|
E|-----------------------------------------------------------|------------------3-------3-----------------------3-------3---|

E|-------3---------------3---3-----3-------3-------3---|------3---3-------3-------3---3-----3-------3-------3---|
B|-------3-------3-------3---3-----3-------3-------3---|------3---3-------3-------3---3-----3-------3-------3---|
G|-0---------0-------0-------0---------0-------0-------|-0------------0-------0-------0---------0-------0-------|
D|-0---------0-------0-------0---------0-------0-------|-0------------0-------0-------0---------0-------0-------|
A|-----------------------------------------------------|--------------------------------------------------------|
E|-3---------3-------3-------3---------3-------3-------|-3------------3-------3-------3---------3-------3-------|

E|-5----5---5---5---5-----------10---10--10--10--10--10--0---|-12--------------------------------------------------------|
B|-6----6---6---6---6---6---11--11---11--11--11--11--11--0---|-13---13--13--13--13------13--12-------12--12--12------0---|
G|-7----7---7---7---7---7---12--12---12----------------------|-12---12--------------12------12---12--12--12--12--12------|
D|-----------------------------------------------------------|-----------------------------------------------------------|
A|-----------------------------------------------------------|-----------------------------------------------------------|
E|-----------------------------------------------------------|-----------------------------------------------------------|

E|-5----5---5---5---5---5----10-------10--10--10--10--0---|-------------------------------------------------0---|
B|-6----6---6---6---6---6----11---11--11--11--11--11--0---|-13-------13--13--13------13--12----12--12---12--0---|
G|-7----7-------------------------12----------------------|------12--12--12--12--12--12--12----12--12---12------|
D|--------------------------------------------------------|------------------------------------12--12---12------|
A|--------------------------------------------------------|-----------------------------------------------------|
E|--------------------------------------------------------|-----------------------------------------------------|

E|-5----5---5---5---5-----------10---10--10--10--10--10--0---|-12--------------------------------------------------------|
B|-6----6---6---6---6---6---11--11---11--11--11--11--11--0---|-13---13--13--13--13------13--12-------12--12--12------0---|
G|-7----7---7---7---7---7---12--12---12----------------------|-12---12--------------12------12---12--12--12--12--12------|
D|-----------------------------------------------------------|-----------------------------------------------------------|
A|-----------------------------------------------------------|-----------------------------------------------------------|
E|-----------------------------------------------------------|-----------------------------------------------------------|

E|-5----5---5---5---5---5----10-------10--10--10--10--0---|-------------------------------------------------0---|
B|-6----6---6---6---6---6----11---11--11--11--11--11--0---|-13-------13--13--13------13--12----12--12---12--0---|
G|-7----7-------------------------12----------------------|------12--12--12--12--12--12--12----12--12---12------|
D|--------------------------------------------------------|------------------------------------12--12---12------|
A|--------------------------------------------------------|-----------------------------------------------------|
E|--------------------------------------------------------|-----------------------------------------------------|

E|--------1-----3-------------|--------1-----3-------------|--------1-----3-------------|
B|--------X-----X-------------|--------X-----X-------------|--------X-----X-------------|
G|-7------X-----X---%----7----|-7------X-----X---%----7----|-7------X-----X---%----7----|
D|-7------3-----5---%----7----|-7------3-----5---%----7----|-7------3-----5---%----7----|
A|-5------3-----5--------5----|-5------3-----5--------5----|-5------3-----5--------5----|
E|--------1-----3-------------|--------1-----3-------------|--------1-----3-------------|

E|--------1-----3---3---------|-----------------------------------------------------|
B|--------X-----X-------------|----------3---3---3--------1----1---1---1---1---1----|
G|-7------X-----X--------%----|-7----7---2---2---2---7----0----0---0---0---0---0----|
D|-7------3-----5---5----%----|-7----7---0---0---0---7----3----3---3---3---3---3----|
A|-5------3-----5---5---------|-5----5---0---0---0---5----3----3---3---3---3---3----|
E|--------1-----3---3---------|-----------------------------------------------------|

E|-----------------------------------------|--------------3--------------------------------------|
B|-3----3----3----3----3---3-----3----3----|---------------------------1----1---1---1---1---1----|
G|-3----3----3----3----3---3-----3----3----|-7----7---7---7---7---7----0----0---0---0---0---0----|
D|-0----0----0----0----0---0-----0----0----|-7----7---7---7---7---7----3----3---3---3---3---3----|
A|-1----1----1----1----1---1-----1----1----|-5----5---5---5---5---5----3----3---3---3---3---3----|
E|-----------------------------------------|-----------------------------------------------------|

E|-3----3----3----3----3---3----3---3----3----|-----------------------------------------------------|
B|-3----3----3----3----3---3----3---3----3----|---------------------------1----1---1---1---1---1----|
G|-0----0----0----0----0---0----0---0----0----|-7----7---7---7---7---7----0----0---0---0---0---0----|
D|-0----0----0----0----0---0----0---0----0----|-7----7---7---7---7---7----3----3---3---3---3---3----|
A|--------------------------------------------|-5----5---5-------5---5----3----3---3---3---3---3----|
E|-3----3----3----3----3---3----3---3----3----|-----------------------------------------------------|

E|-----------------------------------------|-----------------------------------------|
B|-3----3----3----3----3---3-----3----3----|-3----3----3----3----3----3----3----3----|
G|-3----3----3----3----3---3-----3----3----|-3----3----3----3----3----3----3----3----|
D|-0----0----0----0----0---0-----0----0----|-0----0----0----0----0----0----0----0----|
A|-1----1----1----1----1---1-----1----1----|-1----1----1----1----1----1----1----1----|
E|-----------------------------------------|-----------------------------------------|

E|-----------------------------------------|-----------------------------------------------------------|
B|-1----1----1----1----1----1----1----1----|-------------3---3---3-------3---------------3-------------|
G|-0----0----0----0----0----0----0----0----|---------2---2---2-------2-------------------2--------2----|
D|-3----3----3----3----3----3----3----3----|-3---0---0---0---0-------0-------3---0---0---0--------0----|
A|-3----3----3----3----3----3----3----3----|-------------------------------------------------3---------|
E|-----------------------------------------|-----------------------------------------------------------|

E|-----------------------------------------------------------|-----------------------------------------------------------|
B|-------------3---3---3-------3---------------3-------------|-------------3---3---3-------3---------------3-------------|
G|---------2---2---2-------2-------------------2--------2----|---------2---2---2-------2-------------------2--------2----|
D|-3---0---0---0---0-------0-------3---0---0---0--------0----|-3---0---0---0---0-------0-------3---0---0---0--------0----|
A|-------------------------------------------------3---------|-------------------------------------------------3---------|
E|-----------------------------------------------------------|-----------------------------------------------------------|

E|-----------------------------------------------------------|-5----5---5---5---5-----------10---10--10--10--10--10--0---|
B|-------------3---3---3-------3---------------3-------------|-6----6---6---6---6---6---11--11---11--11--11--11--11--0---|
G|---------2---2---2-------2-------------------2--------2----|-7----7---7---7---7---7---12--12---12----------------------|
D|-3---0---0---0---0-------0-------3---0---0---0--------0----|-----------------------------------------------------------|
A|-------------------------------------------------3---------|-----------------------------------------------------------|
E|-----------------------------------------------------------|-----------------------------------------------------------|

E|-12--------------------------------------------------------|-5----5---5---5---5---5----10-------10--10--10--10--0---|
B|-13---13--13--13--13------13--12-------12--12--12------0---|-6----6---6---6---6---6----11---11--11--11--11--11--0---|
G|-12---12--------------12------12---12--12--12--12--12------|-7----7-------------------------12----------------------|
D|-----------------------------------------------------------|--------------------------------------------------------|
A|-----------------------------------------------------------|--------------------------------------------------------|
E|-----------------------------------------------------------|--------------------------------------------------------|

E|-------------------------------------------------0---|-5----5---5---5---5-----------10---10--10--10--10--10--0---|
B|-13-------13--13--13------13--12----12--12---12--0---|-6----6---6---6---6---6---11--11---11--11--11--11--11--0---|
G|------12--12--12--12--12--12--12----12--12---12------|-7----7---7---7---7---7---12--12---12----------------------|
D|------------------------------------12--12---12------|-----------------------------------------------------------|
A|-----------------------------------------------------|-----------------------------------------------------------|
E|-----------------------------------------------------|-----------------------------------------------------------|

E|-12--------------------------------------------------------|-5----5---5---5---5---5----10-------10--10--10--10--0---|
B|-13---13--13--13--13------13--12-------12--12--12------0---|-6----6---6---6---6---6----11---11--11--11--11--11--0---|
G|-12---12--------------12------12---12--12--12--12--12------|-7----7-------------------------12----------------------|
D|-----------------------------------------------------------|--------------------------------------------------------|
A|-----------------------------------------------------------|--------------------------------------------------------|
E|-----------------------------------------------------------|--------------------------------------------------------|

E|-------------------------------------------------0---|-5----5---5---5---5-----------10---10--10--10--10--10--0---|
B|-13-------13--13--13------13--12----12--12---12--0---|-6----6---6---6---6---6---11--11---11--11--11--11--11--0---|
G|------12--12--12--12--12--12--12----12--12---12------|-7----7---7---7---7---7---12--12---12----------------------|
D|------------------------------------12--12---12------|-----------------------------------------------------------|
A|-----------------------------------------------------|-----------------------------------------------------------|
E|-----------------------------------------------------|-----------------------------------------------------------|

E|-12--------------------------------------------------------|-5----5---5---5---5---5----10-------10--10--10--10--0---|
B|-13---13--13--13--13------13--12-------12--12--12------0---|-6----6---6---6---6---6----11---11--11--11--11--11--0---|
G|-12---12--------------12------12---12--12--12--12--12------|-7----7-------------------------12----------------------|
D|-----------------------------------------------------------|--------------------------------------------------------|
A|-----------------------------------------------------------|--------------------------------------------------------|
E|-----------------------------------------------------------|--------------------------------------------------------|

E|-------------------------------------------------0---|-5----5---5---5---5-----------10---10--10--10--10--10--0---|
B|-13-------13--13--13------13--12----12--12---12--0---|-6----6---6---6---6---6---11--11---11--11--11--11--11--0---|
G|------12--12--12--12--12--12--12----12--12---12------|-7----7---7---7---7---7---12--12---12----------------------|
D|------------------------------------12--12---12------|-----------------------------------------------------------|
A|-----------------------------------------------------|-----------------------------------------------------------|
E|-----------------------------------------------------|-----------------------------------------------------------|

E|-12--------------------------------------------------------|-5------6------|---------------|
B|-13---13--13--13--13------13--12-------12--12--12------0---|-6------6------|--------0------|
G|-12---12--------------12------12---12--12--12--12--12------|-7------7------|--------0------|
D|-----------------------------------------------------------|-7------8------|-0------0------|
A|-----------------------------------------------------------|-5------8------|-3-------------|
E|-----------------------------------------------------------|--------6------|--------3------|

E|---------|--------|--------------------------------------------------|--------------------------------------------------|
B|-0-------|--------|------13---12--------------------12--12-----------|------13---12--10-------10-------12--12--X--------|
G|-0-------|-%------|-%----14---12--10--12---10---X---12--12-----------|-%----14---12--10--12---10---X---12--12-----------|
D|-0-------|-%------|-%----------------------10---X---12--12--0---12---|-%-----------------12---10---X---12--12------12---|
A|---------|--------|--------------------------------------------------|--------------------------------------------------|
E|-3-------|--------|--------------------------------------------------|--------------------------------------------------|

E|-----------------------------------------------------|--------------------------------------------------|
B|---------13---12-----------10-------12--12-----------|---------13---12----------------------------------|
G|---------14---12--10-------10---%---12--12-----------|---------14---12--12-------------------------%----|
D|-12--X----------------12---10---%---12--12--0---12---|-12--X----------------12---3----X---5---5----%----|
A|-----------------------------------------------------|---------------------------3----X---5---5---------|
E|-----------------------------------------------------|---------------------------1----X---3---3---------|

E|---------|---------|---------------------------|---------|---------|---------|---------|
B|---------|---------|---------------------------|---------|---------|---------|---------|
G|-%-------|-7-------|-7---7---%----%-----%------|-%-------|-%-------|-%-------|-%-------|
D|-%-------|-7-------|-7---7---%----%-----%------|-%-------|-%-------|-%-------|-%-------|
A|---------|-5-------|-5---5---------------------|---------|---------|---------|---------|
E|---------|---------|---------------------------|---------|---------|---------|---------|
ACDC - The Furor
ACDC - The Furor.gp3