ACDC - The Razors Edge

AC-DC



Title: The Razors Edge
Album: The Razors Edge (1990)
Artist: AC/DC
Author: A. Young/M. Young

Track 1: A. YOUNG (lead guitar)
E|---------|---------|---------|---------|---------|---------|---------|---------|-------------------------------------|
B|---------|---------|---------|---------|---------|---------|---------|---------|-------------------------------------|
G|---------|---------|---------|-%-------|-%-------|-%-------|-%-------|-%-------|-%------%--------------------%-------|
D|---------|---------|---------|-%-------|-%-------|-%-------|-%-------|-%-------|-%------%--------------------%-------|
A|---------|---------|---------|---------|---------|---------|---------|---------|-------------X---X---X---X-------X---|
E|-0-------|-0-------|-0-------|---------|---------|---------|---------|---------|-------------X---X---X---X-------X---|

E|------------------------|---------|-------------------|---------------|-------------------|
B|------------------------|---------|-------------------|---------------|-------------------|
G|------------------------|-%-------|-4-------4-----4---|-5------0------|-2-------2----2----|
D|------------------------|-%-------|-------------------|---------------|-------------------|
A|-X----15----X----15-----|---------|-------------------|---------------|-------------------|
E|-X----15----X----15-----|---------|-------------------|---------------|-------------------|

E|-------------------|---------|---------|
B|-------------------|---------|---------|
G|-4-------4----4----|-%-------|-%-------|
D|-------------------|-%-------|-%-------|
A|-------------------|---------|---------|
E|-------------------|---------|---------|
ACDC - The Razors Edge
ACDC - The Razors Edge.gp3