ACDC - Thunderstruck (Techno Remix)

ACDC - Thunderstruck (Techno Remix)

AC-DC



Title: Thunderstruck (Techno Remix)
Album: 
Artist: ACDC
Author: Ed Barker

Track 1: Guitar 1
E|--------------|-----------------------------------------------------------------|
B|----------0---|-4---0---7---0---4---0---7---0---4---0---7---0---4---0---7---0---|
G|-%---%--------|-----------------------------------------------------------------|
D|-%---%--------|-----------------------------------------------------------------|
A|--------------|-----------------------------------------------------------------|
E|--------------|-----------------------------------------------------------------|

E|-----------------------------------------------------------------|-----------------------------------------------------------------|
B|-4---0---7---0---4---0---7---0---4---0---7---0---4---0---7---0---|-5---0---8---0---5---0---8---0---5---0---8---0---5---0---8---0---|
G|-----------------------------------------------------------------|-----------------------------------------------------------------|
D|-----------------------------------------------------------------|-----------------------------------------------------------------|
A|-----------------------------------------------------------------|-----------------------------------------------------------------|
E|-----------------------------------------------------------------|-----------------------------------------------------------------|

E|-----------------------------------------------------------------|-----------------------------------------------------------------|
B|-5---0---8---0---5---0---8---0---5---0---8---0---5---0---8---0---|-4---0---7---0---4---0---7---0---4---0---7---0---4---0---7---0---|
G|-----------------------------------------------------------------|-----------------------------------------------------------------|
D|-----------------------------------------------------------------|-----------------------------------------------------------------|
A|-----------------------------------------------------------------|-----------------------------------------------------------------|
E|-----------------------------------------------------------------|-----------------------------------------------------------------|

E|-----------------------------------------------------------------|-----------------------------------------------------------------|
B|-4---0---7---0---4---0---7---0---4---0---7---0---4---0---7---0---|-5---0---8---0---5---0---8---0---5---0---8---0---5---0---8---0---|
G|-----------------------------------------------------------------|-----------------------------------------------------------------|
D|-----------------------------------------------------------------|-----------------------------------------------------------------|
A|-----------------------------------------------------------------|-----------------------------------------------------------------|
E|-----------------------------------------------------------------|-----------------------------------------------------------------|

E|-----------------------------------------------------------------|-----------------------------------------------------------------|
B|-5---0---8---0---5---0---8---0---5---0---8---0---5---0---8---0---|-12--0---10--0---9---0---10--0---9---0---7---0---9---0---5---0---|
G|-----------------------------------------------------------------|-----------------------------------------------------------------|
D|-----------------------------------------------------------------|-----------------------------------------------------------------|
A|-----------------------------------------------------------------|-----------------------------------------------------------------|
E|-----------------------------------------------------------------|-----------------------------------------------------------------|

E|-----------------------------------------------------------------|-----------------------------------------------------------------|
B|-7---0---4---0---5---0---4---0---5---0---4---0---5---0---4---0---|-12--0---10--0---9---0---10--0---9---0---7---0---9---0---5---0---|
G|-----------------------------------------------------------------|-----------------------------------------------------------------|
D|-----------------------------------------------------------------|-----------------------------------------------------------------|
A|-----------------------------------------------------------------|-----------------------------------------------------------------|
E|-----------------------------------------------------------------|-----------------------------------------------------------------|

E|-----------------------------------------------------------------|-----------------------------------------------------------------|
B|-7---0---4---0---5---0---4---0---5---0---4---0---5---0---4---0---|-12--0---10--0---9---0---10--0---9---0---7---0---9---0---5---0---|
G|-----------------------------------------------------------------|-----------------------------------------------------------------|
D|-----------------------------------------------------------------|-----------------------------------------------------------------|
A|-----------------------------------------------------------------|-----------------------------------------------------------------|
E|-----------------------------------------------------------------|-----------------------------------------------------------------|

E|-----------------------------------------------------------------|-----------------------------------------------------------------|
B|-7---0---4---0---5---0---4---0---5---0---4---0---5---0---4---0---|-12--0---10--0---9---0---10--0---9---0---7---0---9---0---5---0---|
G|-----------------------------------------------------------------|-----------------------------------------------------------------|
D|-----------------------------------------------------------------|-----------------------------------------------------------------|
A|-----------------------------------------------------------------|-----------------------------------------------------------------|
E|-----------------------------------------------------------------|-----------------------------------------------------------------|

E|-----------------------------------------------------------------|-----------------------------------------------------------------|
B|-7---0---4---0---5---0---4---0---5---0---4---0---5---0---4---0---|-12--0---10--0---9---0---10--0---9---0---7---0---9---0---5---0---|
G|-----------------------------------------------------------------|-----------------------------------------------------------------|
D|-----------------------------------------------------------------|-----------------------------------------------------------------|
A|-----------------------------------------------------------------|-----------------------------------------------------------------|
E|-----------------------------------------------------------------|-----------------------------------------------------------------|

E|-----------------------------------------------------------------|-----------------------------------------------------------------|
B|-7---0---4---0---5---0---4---0---5---0---4---0---5---0---4---0---|-12--0---10--0---9---0---10--0---9---0---7---0---9---0---5---0---|
G|-----------------------------------------------------------------|-----------------------------------------------------------------|
D|-----------------------------------------------------------------|-----------------------------------------------------------------|
A|-----------------------------------------------------------------|-----------------------------------------------------------------|
E|-----------------------------------------------------------------|-----------------------------------------------------------------|

E|-----------------------------------------------------------------|-----------------------------------------------------------------|
B|-7---0---4---0---5---0---4---0---5---0---4---0---5---0---4---0---|-12--0---10--0---9---0---10--0---9---0---7---0---9---0---5---0---|
G|-----------------------------------------------------------------|-----------------------------------------------------------------|
D|-----------------------------------------------------------------|-----------------------------------------------------------------|
A|-----------------------------------------------------------------|-----------------------------------------------------------------|
E|-----------------------------------------------------------------|-----------------------------------------------------------------|

E|-----------------------------------------------------------------|-----------------------------------------------------------------|
B|-7---0---4---0---5---0---4---0---5---0---4---0---5---0---4---0---|-12--0---10--0---9---0---10--0---9---0---7---0---9---0---5---0---|
G|-----------------------------------------------------------------|-----------------------------------------------------------------|
D|-----------------------------------------------------------------|-----------------------------------------------------------------|
A|-----------------------------------------------------------------|-----------------------------------------------------------------|
E|-----------------------------------------------------------------|-----------------------------------------------------------------|

E|-----------------------------------------------------------------|-----------------------------------------------------------------|
B|-7---0---4---0---5---0---4---0---5---0---4---0---5---0---4---0---|-12--0---10--0---9---0---10--0---9---0---7---0---9---0---5---0---|
G|-----------------------------------------------------------------|-----------------------------------------------------------------|
D|-----------------------------------------------------------------|-----------------------------------------------------------------|
A|-----------------------------------------------------------------|-----------------------------------------------------------------|
E|-----------------------------------------------------------------|-----------------------------------------------------------------|

E|-----------------------------------------------------------------|-----------------------------------------------------------------|
B|-7---0---4---0---5---0---4---0---5---0---4---0---5---0---4---0---|-12--0---10--0---9---0---10--0---9---0---7---0---9---0---5---0---|
G|-----------------------------------------------------------------|-----------------------------------------------------------------|
D|-----------------------------------------------------------------|-----------------------------------------------------------------|
A|-----------------------------------------------------------------|-----------------------------------------------------------------|
E|-----------------------------------------------------------------|-----------------------------------------------------------------|

E|-----------------------------------------------------------------|-----------------------------------------------------------------|
B|-7---0---4---0---5---0---4---0---5---0---4---0---5---0---4---0---|-12--0---10--0---9---0---10--0---9---0---7---0---9---0---5---0---|
G|-----------------------------------------------------------------|-----------------------------------------------------------------|
D|-----------------------------------------------------------------|-----------------------------------------------------------------|
A|-----------------------------------------------------------------|-----------------------------------------------------------------|
E|-----------------------------------------------------------------|-----------------------------------------------------------------|

E|-----------------------------------------------------------------|-----------------------------------------------------------------|
B|-7---0---4---0---5---0---4---0---5---0---4---0---5---0---4---0---|-12--0---10--0---9---0---10--0---9---0---7---0---9---0---5---0---|
G|-----------------------------------------------------------------|-----------------------------------------------------------------|
D|-----------------------------------------------------------------|-----------------------------------------------------------------|
A|-----------------------------------------------------------------|-----------------------------------------------------------------|
E|-----------------------------------------------------------------|-----------------------------------------------------------------|

E|-----------------------------------------------------------------|-----------------------------------------------------------------|
B|-7---0---4---0---5---0---4---0---5---0---4---0---5---0---4---0---|-12--0---10--0---9---0---10--0---9---0---7---0---9---0---5---0---|
G|-----------------------------------------------------------------|-----------------------------------------------------------------|
D|-----------------------------------------------------------------|-----------------------------------------------------------------|
A|-----------------------------------------------------------------|-----------------------------------------------------------------|
E|-----------------------------------------------------------------|-----------------------------------------------------------------|

E|-----------------------------------------------------------------|-----------------------------------------------------------------|
B|-7---0---4---0---5---0---4---0---5---0---4---0---5---0---4---0---|-12--0---10--0---9---0---10--0---9---0---7---0---9---0---5---0---|
G|-----------------------------------------------------------------|-----------------------------------------------------------------|
D|-----------------------------------------------------------------|-----------------------------------------------------------------|
A|-----------------------------------------------------------------|-----------------------------------------------------------------|
E|-----------------------------------------------------------------|-----------------------------------------------------------------|

E|-----------------------------------------------------------------|-----------------------------------------------------------------|
B|-7---0---4---0---5---0---4---0---5---0---4---0---5---0---4---0---|-12--0---10--0---9---0---10--0---9---0---7---0---9---0---5---0---|
G|-----------------------------------------------------------------|-----------------------------------------------------------------|
D|-----------------------------------------------------------------|-----------------------------------------------------------------|
A|-----------------------------------------------------------------|-----------------------------------------------------------------|
E|-----------------------------------------------------------------|-----------------------------------------------------------------|

E|-----------------------------------------------------------------|-----------------------------------------------------------------|
B|-7---0---4---0---5---0---4---0---5---0---4---0---5---0---4---0---|-12--0---10--0---9---0---10--0---9---0---7---0---9---0---5---0---|
G|-----------------------------------------------------------------|-----------------------------------------------------------------|
D|-----------------------------------------------------------------|-----------------------------------------------------------------|
A|-----------------------------------------------------------------|-----------------------------------------------------------------|
E|-----------------------------------------------------------------|-----------------------------------------------------------------|

E|-----------------------------------------------------------------|-----------------------------------------------------------------|
B|-7---0---4---0---5---0---4---0---5---0---4---0---5---0---4---0---|-12--0---10--0---9---0---10--0---9---0---7---0---9---0---5---0---|
G|-----------------------------------------------------------------|-----------------------------------------------------------------|
D|-----------------------------------------------------------------|-----------------------------------------------------------------|
A|-----------------------------------------------------------------|-----------------------------------------------------------------|
E|-----------------------------------------------------------------|-----------------------------------------------------------------|

E|-----------------------------------------------------------------|-----------------------------------------------------------------|
B|-7---0---4---0---5---0---4---0---5---0---4---0---5---0---4---0---|-12--0---10--0---9---0---10--0---9---0---7---0---9---0---5---0---|
G|-----------------------------------------------------------------|-----------------------------------------------------------------|
D|-----------------------------------------------------------------|-----------------------------------------------------------------|
A|-----------------------------------------------------------------|-----------------------------------------------------------------|
E|-----------------------------------------------------------------|-----------------------------------------------------------------|

E|-----------------------------------------------------------------|-----------------------------------------------------------------|
B|-7---0---4---0---5---0---4---0---5---0---4---0---5---0---4---0---|-12--0---10--0---9---0---10--0---9---0---7---0---9---0---5---0---|
G|-----------------------------------------------------------------|-----------------------------------------------------------------|
D|-----------------------------------------------------------------|-----------------------------------------------------------------|
A|-----------------------------------------------------------------|-----------------------------------------------------------------|
E|-----------------------------------------------------------------|-----------------------------------------------------------------|

E|-----------------------------------------------------------------|-----------------------------------------------------------------|
B|-7---0---4---0---5---0---4---0---5---0---4---0---5---0---4---0---|-12--0---10--0---9---0---10--0---9---0---7---0---9---0---5---0---|
G|-----------------------------------------------------------------|-----------------------------------------------------------------|
D|-----------------------------------------------------------------|-----------------------------------------------------------------|
A|-----------------------------------------------------------------|-----------------------------------------------------------------|
E|-----------------------------------------------------------------|-----------------------------------------------------------------|

E|-----------------------------------------------------------------|-----------------------------------------------------------------|
B|-7---0---4---0---5---0---4---0---5---0---4---0---5---0---4---0---|-12--0---10--0---9---0---10--0---9---0---7---0---9---0---5---0---|
G|-----------------------------------------------------------------|-----------------------------------------------------------------|
D|-----------------------------------------------------------------|-----------------------------------------------------------------|
A|-----------------------------------------------------------------|-----------------------------------------------------------------|
E|-----------------------------------------------------------------|-----------------------------------------------------------------|

E|-----------------------------------------------------------------|-----------------------------------------------------------------|
B|-7---0---4---0---5---0---4---0---5---0---4---0---5---0---4---0---|-12--0---10--0---9---0---10--0---9---0---7---0---9---0---5---0---|
G|-----------------------------------------------------------------|-----------------------------------------------------------------|
D|-----------------------------------------------------------------|-----------------------------------------------------------------|
A|-----------------------------------------------------------------|-----------------------------------------------------------------|
E|-----------------------------------------------------------------|-----------------------------------------------------------------|

E|-----------------------------------------------------------------|-----------------------------------------------------------------|
B|-7---0---4---0---5---0---4---0---5---0---4---0---5---0---4---0---|-12--0---10--0---9---0---10--0---9---0---7---0---9---0---5---0---|
G|-----------------------------------------------------------------|-----------------------------------------------------------------|
D|-----------------------------------------------------------------|-----------------------------------------------------------------|
A|-----------------------------------------------------------------|-----------------------------------------------------------------|
E|-----------------------------------------------------------------|-----------------------------------------------------------------|

E|-----------------------------------------------------------------|-----------------------------------------------------------------|
B|-7---0---4---0---5---0---4---0---5---0---4---0---5---0---4---0---|-12--0---10--0---9---0---10--0---9---0---7---0---9---0---5---0---|
G|-----------------------------------------------------------------|-----------------------------------------------------------------|
D|-----------------------------------------------------------------|-----------------------------------------------------------------|
A|-----------------------------------------------------------------|-----------------------------------------------------------------|
E|-----------------------------------------------------------------|-----------------------------------------------------------------|

E|-----------------------------------------------------------------|-----------------------------------------------------------------|
B|-7---0---4---0---5---0---4---0---5---0---4---0---5---0---4---0---|-12--0---10--0---9---0---10--0---9---0---7---0---9---0---5---0---|
G|-----------------------------------------------------------------|-----------------------------------------------------------------|
D|-----------------------------------------------------------------|-----------------------------------------------------------------|
A|-----------------------------------------------------------------|-----------------------------------------------------------------|
E|-----------------------------------------------------------------|-----------------------------------------------------------------|

E|-----------------------------------------------------------------|-----------------------------------------------------------------|
B|-7---0---4---0---5---0---4---0---5---0---4---0---5---0---4---0---|-12--0---10--0---9---0---10--0---9---0---7---0---9---0---5---0---|
G|-----------------------------------------------------------------|-----------------------------------------------------------------|
D|-----------------------------------------------------------------|-----------------------------------------------------------------|
A|-----------------------------------------------------------------|-----------------------------------------------------------------|
E|-----------------------------------------------------------------|-----------------------------------------------------------------|

E|-----------------------------------------------------------------|---------|---------|
B|-7---0---4---0---5---0---4---0---5---0---4---0---5---0---4---0---|---------|---------|
G|-----------------------------------------------------------------|-%-------|-%-------|
D|-----------------------------------------------------------------|-%-------|-%-------|
A|-----------------------------------------------------------------|---------|---------|
E|-----------------------------------------------------------------|---------|---------|

E|-----------------------------------------------------------------|-----------------------------------------------------------------|
B|-12--0---10--0---9---0---10--0---9---0---7---0---9---0---5---0---|-7---0---4---0---5---0---4---0---5---0---4---0---5---0---4---0---|
G|-----------------------------------------------------------------|-----------------------------------------------------------------|
D|-----------------------------------------------------------------|-----------------------------------------------------------------|
A|-----------------------------------------------------------------|-----------------------------------------------------------------|
E|-----------------------------------------------------------------|-----------------------------------------------------------------|

E|-----------------------------------------------------------------|-----------------------------------------------------------------|
B|-12--0---10--0---9---0---10--0---9---0---7---0---9---0---5---0---|-7---0---4---0---5---0---4---0---5---0---4---0---5---0---4---0---|
G|-----------------------------------------------------------------|-----------------------------------------------------------------|
D|-----------------------------------------------------------------|-----------------------------------------------------------------|
A|-----------------------------------------------------------------|-----------------------------------------------------------------|
E|-----------------------------------------------------------------|-----------------------------------------------------------------|

E|-----------------------------------------------------------------|-----------------------------------------------------------------|
B|-12--0---10--0---9---0---10--0---9---0---7---0---9---0---5---0---|-7---0---4---0---5---0---4---0---5---0---4---0---5---0---4---0---|
G|-----------------------------------------------------------------|-----------------------------------------------------------------|
D|-----------------------------------------------------------------|-----------------------------------------------------------------|
A|-----------------------------------------------------------------|-----------------------------------------------------------------|
E|-----------------------------------------------------------------|-----------------------------------------------------------------|

E|-----------------------------------------------------------------|-----------------------------------------------------------------|
B|-12--0---10--0---9---0---10--0---9---0---7---0---9---0---5---0---|-7---0---4---0---5---0---4---0---5---0---4---0---5---0---4---0---|
G|-----------------------------------------------------------------|-----------------------------------------------------------------|
D|-----------------------------------------------------------------|-----------------------------------------------------------------|
A|-----------------------------------------------------------------|-----------------------------------------------------------------|
E|-----------------------------------------------------------------|-----------------------------------------------------------------|

E|-----------------------------------------------------------------|-----------------------------------------------------------------|
B|-12--0---10--0---9---0---10--0---9---0---7---0---9---0---5---0---|-7---0---4---0---5---0---4---0---5---0---4---0---5---0---4---0---|
G|-----------------------------------------------------------------|-----------------------------------------------------------------|
D|-----------------------------------------------------------------|-----------------------------------------------------------------|
A|-----------------------------------------------------------------|-----------------------------------------------------------------|
E|-----------------------------------------------------------------|-----------------------------------------------------------------|

E|-----------------------------------------------------------------|-----------------------------------------------------------------|
B|-12--0---10--0---9---0---10--0---9---0---7---0---9---0---5---0---|-7---0---4---0---5---0---4---0---5---0---4---0---5---0---4---0---|
G|-----------------------------------------------------------------|-----------------------------------------------------------------|
D|-----------------------------------------------------------------|-----------------------------------------------------------------|
A|-----------------------------------------------------------------|-----------------------------------------------------------------|
E|-----------------------------------------------------------------|-----------------------------------------------------------------|

E|-----------------------------------------------------------------|-----------------------------------------------------------------|
B|-12--0---10--0---9---0---10--0---9---0---7---0---9---0---5---0---|-7---0---4---0---5---0---4---0---5---0---4---0---5---0---4---0---|
G|-----------------------------------------------------------------|-----------------------------------------------------------------|
D|-----------------------------------------------------------------|-----------------------------------------------------------------|
A|-----------------------------------------------------------------|-----------------------------------------------------------------|
E|-----------------------------------------------------------------|-----------------------------------------------------------------|

E|-----------------------------------------------------------------|-----------------------------------------------------------------|
B|-12--0---10--0---9---0---10--0---9---0---7---0---9---0---5---0---|-7---0---4---0---5---0---4---0---5---0---4---0---5---0---4---0---|
G|-----------------------------------------------------------------|-----------------------------------------------------------------|
D|-----------------------------------------------------------------|-----------------------------------------------------------------|
A|-----------------------------------------------------------------|-----------------------------------------------------------------|
E|-----------------------------------------------------------------|-----------------------------------------------------------------|

E|-----------------------------------------------------------------|-----------------------------------------------------------------|
B|-12--0---10--0---9---0---10--0---9---0---7---0---9---0---5---0---|-7---0---4---0---5---0---4---0---5---0---4---0---5---0---4---0---|
G|-----------------------------------------------------------------|-----------------------------------------------------------------|
D|-----------------------------------------------------------------|-----------------------------------------------------------------|
A|-----------------------------------------------------------------|-----------------------------------------------------------------|
E|-----------------------------------------------------------------|-----------------------------------------------------------------|

E|-----------------------------------------------------------------|-----------------------------------------------------------------|
B|-12--0---10--0---9---0---10--0---9---0---7---0---9---0---5---0---|-7---0---4---0---5---0---4---0---5---0---4---0---5---0---4---0---|
G|-----------------------------------------------------------------|-----------------------------------------------------------------|
D|-----------------------------------------------------------------|-----------------------------------------------------------------|
A|-----------------------------------------------------------------|-----------------------------------------------------------------|
E|-----------------------------------------------------------------|-----------------------------------------------------------------|

E|-----------------------------------------------------------------|-----------------------------------------------------------------|
B|-12--0---10--0---9---0---10--0---9---0---7---0---9---0---5---0---|-7---0---4---0---5---0---4---0---5---0---4---0---5---0---4---0---|
G|-----------------------------------------------------------------|-----------------------------------------------------------------|
D|-----------------------------------------------------------------|-----------------------------------------------------------------|
A|-----------------------------------------------------------------|-----------------------------------------------------------------|
E|-----------------------------------------------------------------|-----------------------------------------------------------------|

E|-----------------------------------------------------------------|-----------------------------------------------------------------|
B|-12--0---10--0---9---0---10--0---9---0---7---0---9---0---5---0---|-7---0---4---0---5---0---4---0---5---0---4---0---5---0---4---0---|
G|-----------------------------------------------------------------|-----------------------------------------------------------------|
D|-----------------------------------------------------------------|-----------------------------------------------------------------|
A|-----------------------------------------------------------------|-----------------------------------------------------------------|
E|-----------------------------------------------------------------|-----------------------------------------------------------------|

E|-----------------------------------------------------------------|-----------------------------------------------------------------|
B|-12--0---10--0---9---0---10--0---9---0---7---0---9---0---5---0---|-7---0---4---0---5---0---4---0---5---0---4---0---5---0---4---0---|
G|-----------------------------------------------------------------|-----------------------------------------------------------------|
D|-----------------------------------------------------------------|-----------------------------------------------------------------|
A|-----------------------------------------------------------------|-----------------------------------------------------------------|
E|-----------------------------------------------------------------|-----------------------------------------------------------------|

E|---------------------------------------------|---------|-----------------------------------------------------------------|
B|-12--0---10--0---9---0---10--0---9-----------|---------|-12--0---10--0---9---0---10--0---9---0---7---0---9---0---5---0---|
G|---------------------------------------%-----|-%-------|-----------------------------------------------------------------|
D|---------------------------------------%-----|-%-------|-----------------------------------------------------------------|
A|---------------------------------------------|---------|-----------------------------------------------------------------|
E|---------------------------------------------|---------|-----------------------------------------------------------------|

E|-----------------------------------------------------------------|-----------------------------------------------------------------|
B|-7---0---4---0---5---0---4---0---5---0---4---0---5---0---4---0---|-12--0---10--0---9---0---10--0---9---0---7---0---9---0---5---0---|
G|-----------------------------------------------------------------|-----------------------------------------------------------------|
D|-----------------------------------------------------------------|-----------------------------------------------------------------|
A|-----------------------------------------------------------------|-----------------------------------------------------------------|
E|-----------------------------------------------------------------|-----------------------------------------------------------------|

E|-----------------------------------------------------------------|-----------------------------------------------------------------|
B|-7---0---4---0---5---0---4---0---5---0---4---0---5---0---4---0---|-12--0---10--0---9---0---10--0---9---0---7---0---9---0---5---0---|
G|-----------------------------------------------------------------|-----------------------------------------------------------------|
D|-----------------------------------------------------------------|-----------------------------------------------------------------|
A|-----------------------------------------------------------------|-----------------------------------------------------------------|
E|-----------------------------------------------------------------|-----------------------------------------------------------------|

E|-----------------------------------------------------------------|-----------------------------------------------------------------|
B|-7---0---4---0---5---0---4---0---5---0---4---0---5---0---4---0---|-12--0---10--0---9---0---10--0---9---0---7---0---9---0---5---0---|
G|-----------------------------------------------------------------|-----------------------------------------------------------------|
D|-----------------------------------------------------------------|-----------------------------------------------------------------|
A|-----------------------------------------------------------------|-----------------------------------------------------------------|
E|-----------------------------------------------------------------|-----------------------------------------------------------------|

E|-----------------------------------------------------------------|-----------------------------------------------------------------|
B|-7---0---4---0---5---0---4---0---5---0---4---0---5---0---4---0---|-12--0---10--0---9---0---10--0---9---0---7---0---9---0---5---0---|
G|-----------------------------------------------------------------|-----------------------------------------------------------------|
D|-----------------------------------------------------------------|-----------------------------------------------------------------|
A|-----------------------------------------------------------------|-----------------------------------------------------------------|
E|-----------------------------------------------------------------|-----------------------------------------------------------------|

E|-----------------------------------------------------------------|-----------------------------------------------------------------|
B|-7---0---4---0---5---0---4---0---5---0---4---0---5---0---4---0---|-12--0---10--0---9---0---10--0---9---0---7---0---9---0---5---0---|
G|-----------------------------------------------------------------|-----------------------------------------------------------------|
D|-----------------------------------------------------------------|-----------------------------------------------------------------|
A|-----------------------------------------------------------------|-----------------------------------------------------------------|
E|-----------------------------------------------------------------|-----------------------------------------------------------------|

E|-----------------------------------------------------------------|-----------------------------------------------------------------|
B|-7---0---4---0---5---0---4---0---5---0---4---0---5---0---4---0---|-12--0---10--0---9---0---10--0---9---0---7---0---9---0---5---0---|
G|-----------------------------------------------------------------|-----------------------------------------------------------------|
D|-----------------------------------------------------------------|-----------------------------------------------------------------|
A|-----------------------------------------------------------------|-----------------------------------------------------------------|
E|-----------------------------------------------------------------|-----------------------------------------------------------------|

E|-----------------------------------------------------------------|-----------------------------------------------------------------|
B|-7---0---4---0---5---0---4---0---5---0---4---0---5---0---4---0---|-12--0---10--0---9---0---10--0---9---0---7---0---9---0---5---0---|
G|-----------------------------------------------------------------|-----------------------------------------------------------------|
D|-----------------------------------------------------------------|-----------------------------------------------------------------|
A|-----------------------------------------------------------------|-----------------------------------------------------------------|
E|-----------------------------------------------------------------|-----------------------------------------------------------------|

E|-----------------------------------------------------------------|---------|---------|
B|-7---0---4---0---5---0---4---0---5---0---4---0---5---0---4---0---|---------|---------|
G|-----------------------------------------------------------------|-%-------|-%-------|
D|-----------------------------------------------------------------|-%-------|-%-------|
A|-----------------------------------------------------------------|---------|---------|
E|-----------------------------------------------------------------|---------|---------|

E|---------|---------|---------|---------|---------|---------|-----------------------------------------------------------------|
B|---------|---------|---------|---------|---------|---------|-12--0---10--0---9---0---10--0---9---0---7---0---9---0---5---0---|
G|-%-------|-%-------|-%-------|-%-------|-%-------|-%-------|-----------------------------------------------------------------|
D|-%-------|-%-------|-%-------|-%-------|-%-------|-%-------|-----------------------------------------------------------------|
A|---------|---------|---------|---------|---------|---------|-----------------------------------------------------------------|
E|---------|---------|---------|---------|---------|---------|-----------------------------------------------------------------|

E|-----------------------------------------------------------------|-----------------------------------------------------------------|
B|-7---0---4---0---5---0---4---0---5---0---4---0---5---0---4---0---|-12--0---10--0---9---0---10--0---9---0---7---0---9---0---5---0---|
G|-----------------------------------------------------------------|-----------------------------------------------------------------|
D|-----------------------------------------------------------------|-----------------------------------------------------------------|
A|-----------------------------------------------------------------|-----------------------------------------------------------------|
E|-----------------------------------------------------------------|-----------------------------------------------------------------|

E|-----------------------------------------------------------------|-----------------------------------------------------------------|
B|-7---0---4---0---5---0---4---0---5---0---4---0---5---0---4---0---|-12--0---10--0---9---0---10--0---9---0---7---0---9---0---5---0---|
G|-----------------------------------------------------------------|-----------------------------------------------------------------|
D|-----------------------------------------------------------------|-----------------------------------------------------------------|
A|-----------------------------------------------------------------|-----------------------------------------------------------------|
E|-----------------------------------------------------------------|-----------------------------------------------------------------|

E|-----------------------------------------------------------------|-----------------------------------------------------------------|
B|-7---0---4---0---5---0---4---0---5---0---4---0---5---0---4---0---|-12--0---10--0---9---0---10--0---9---0---7---0---9---0---5---0---|
G|-----------------------------------------------------------------|-----------------------------------------------------------------|
D|-----------------------------------------------------------------|-----------------------------------------------------------------|
A|-----------------------------------------------------------------|-----------------------------------------------------------------|
E|-----------------------------------------------------------------|-----------------------------------------------------------------|

E|-----------------------------------------------------------------|-----------------------------------------------------------------|
B|-7---0---4---0---5---0---4---0---5---0---4---0---5---0---4---0---|-12--0---10--0---9---0---10--0---9---0---7---0---9---0---5---0---|
G|-----------------------------------------------------------------|-----------------------------------------------------------------|
D|-----------------------------------------------------------------|-----------------------------------------------------------------|
A|-----------------------------------------------------------------|-----------------------------------------------------------------|
E|-----------------------------------------------------------------|-----------------------------------------------------------------|

E|-----------------------------------------------------------------|-----------------------------------------------------------------|
B|-7---0---4---0---5---0---4---0---5---0---4---0---5---0---4---0---|-12--0---10--0---9---0---10--0---9---0---7---0---9---0---5---0---|
G|-----------------------------------------------------------------|-----------------------------------------------------------------|
D|-----------------------------------------------------------------|-----------------------------------------------------------------|
A|-----------------------------------------------------------------|-----------------------------------------------------------------|
E|-----------------------------------------------------------------|-----------------------------------------------------------------|

E|-----------------------------------------------------------------|-----------------------------------------------------------------|
B|-7---0---4---0---5---0---4---0---5---0---4---0---5---0---4---0---|-12--0---10--0---9---0---10--0---9---0---7---0---9---0---5---0---|
G|-----------------------------------------------------------------|-----------------------------------------------------------------|
D|-----------------------------------------------------------------|-----------------------------------------------------------------|
A|-----------------------------------------------------------------|-----------------------------------------------------------------|
E|-----------------------------------------------------------------|-----------------------------------------------------------------|

E|-----------------------------------------------------------------|-----------------------------------------------------------------|
B|-7---0---4---0---5---0---4---0---5---0---4---0---5---0---4---0---|-12--0---10--0---9---0---10--0---9---0---7---0---9---0---5---0---|
G|-----------------------------------------------------------------|-----------------------------------------------------------------|
D|-----------------------------------------------------------------|-----------------------------------------------------------------|
A|-----------------------------------------------------------------|-----------------------------------------------------------------|
E|-----------------------------------------------------------------|-----------------------------------------------------------------|

E|-----------------------------------------------------------------|-----------------------------------------------------------------|
B|-7---0---4---0---5---0---4---0---5---0---4---0---5---0---4---0---|-12--0---10--0---9---0---10--0---9---0---7---0---9---0---5---0---|
G|-----------------------------------------------------------------|-----------------------------------------------------------------|
D|-----------------------------------------------------------------|-----------------------------------------------------------------|
A|-----------------------------------------------------------------|-----------------------------------------------------------------|
E|-----------------------------------------------------------------|-----------------------------------------------------------------|

E|-----------------------------------------------------------------|-----------------------------------------------------------------|
B|-7---0---4---0---5---0---4---0---5---0---4---0---5---0---4---0---|-12--0---10--0---9---0---10--0---9---0---7---0---9---0---5---0---|
G|-----------------------------------------------------------------|-----------------------------------------------------------------|
D|-----------------------------------------------------------------|-----------------------------------------------------------------|
A|-----------------------------------------------------------------|-----------------------------------------------------------------|
E|-----------------------------------------------------------------|-----------------------------------------------------------------|

E|-----------------------------------------------------------------|-----------------------------------------------------------------|
B|-7---0---4---0---5---0---4---0---5---0---4---0---5---0---4---0---|-12--0---10--0---9---0---10--0---9---0---7---0---9---0---5---0---|
G|-----------------------------------------------------------------|-----------------------------------------------------------------|
D|-----------------------------------------------------------------|-----------------------------------------------------------------|
A|-----------------------------------------------------------------|-----------------------------------------------------------------|
E|-----------------------------------------------------------------|-----------------------------------------------------------------|

E|-----------------------------------------------------------------|-----------------------------------------------------------------|
B|-7---0---4---0---5---0---4---0---5---0---4---0---5---0---4---0---|-12--0---10--0---9---0---10--0---9---0---7---0---9---0---5---0---|
G|-----------------------------------------------------------------|-----------------------------------------------------------------|
D|-----------------------------------------------------------------|-----------------------------------------------------------------|
A|-----------------------------------------------------------------|-----------------------------------------------------------------|
E|-----------------------------------------------------------------|-----------------------------------------------------------------|

E|-----------------------------------------------------------------|-----------------------------------------------------------------|
B|-7---0---4---0---5---0---4---0---5---0---4---0---5---0---4---0---|-12--0---10--0---9---0---10--0---9---0---7---0---9---0---5---0---|
G|-----------------------------------------------------------------|-----------------------------------------------------------------|
D|-----------------------------------------------------------------|-----------------------------------------------------------------|
A|-----------------------------------------------------------------|-----------------------------------------------------------------|
E|-----------------------------------------------------------------|-----------------------------------------------------------------|

E|-----------------------------------------------------------------|-----------10---12---10--------------|
B|-7---0---4---0---5---0---4---0---5---0---4---0---5---0---4---0---|------12-----------------12----12----|
G|-----------------------------------------------------------------|-%-----------------------------------|
D|-----------------------------------------------------------------|-%-----------------------------------|
A|-----------------------------------------------------------------|-------------------------------------|
E|-----------------------------------------------------------------|-------------------------------------|

E|------------------------|-12---12--10--12----12---10--------10---|-9-----------------------------------|
B|-12---12----------------|------------------------------12--------|------12---10--------12--------------|
G|-----------%------%-----|----------------------------------------|----------------11--------11---11----|
D|-----------%------%-----|----------------------------------------|-------------------------------------|
A|------------------------|----------------------------------------|-------------------------------------|
E|------------------------|----------------------------------------|-------------------------------------|

E|---------14---14----14---14---13--------|-12--------12--12--12--12--10--10------10--10------10---|
B|-X---12----------------------------15---|-----12----------------------------12----------12-------|
G|----------------------------------------|--------------------------------------------------------|
D|----------------------------------------|--------------------------------------------------------|
A|----------------------------------------|--------------------------------------------------------|
E|----------------------------------------|--------------------------------------------------------|

E|-------12-----10---12---|-12----12--12---12--12---12--12--12--12-------|-12---12--12--12---12---12---12--12--12---12---|
B|-12---------------------|----------------------------------------------|-----------------------------------------------|
G|------------------------|-----------------------------------------%----|-----------------------------------------------|
D|------------------------|-----------------------------------------%----|-----------------------------------------------|
A|------------------------|----------------------------------------------|-----------------------------------------------|
E|------------------------|----------------------------------------------|-----------------------------------------------|

E|-12--12--10-----------------------------12---12--|-12--11-------12--10--12--10--10---------------------------|
B|-------------12--12----12-------12--12-----------|---------12----------------------------------------22------|
G|----------------------------11-------------------|---------------------------------------19--21--21------21--|
D|-------------------------------------------------|-----------------------------------21----------------------|
A|-------------------------------------------------|-----------------------------------------------------------|
E|-------------------------------------------------|-----------------------------------------------------------|

E|-----------------------------------------------|------------------------19--------------------------|
B|-----22----------------------------------------|-------22---22--19--22------22--19--22--22--22--19--|
G|-21------21--21---21---21--19------------------|-%--------------------------------------------------|
D|-------------------------------21--21----21----|-%--------------------------------------------------|
A|-----------------------------------------------|----------------------------------------------------|
E|-----------------------------------------------|----------------------------------------------------|

E|---------22----|-22---22---19----------------------------------|---------------------------------|
B|-22------------|----------------22--19-------------------------|-----------22---22---22----22----|
G|---------------|------------------------21---21--19--19--------|-19--21---------21---21----21----|
D|---------------|------------------------------------------21---|---------------------------------|
A|---------------|-----------------------------------------------|---------------------------------|
E|---------------|-----------------------------------------------|---------------------------------|

E|-----------------------------------------------------------------|-----------------------------------------------------------------|
B|-12--0---10--0---9---0---10--0---9---0---7---0---9---0---5---0---|-7---0---4---0---5---0---4---0---5---0---4---0---5---0---4---0---|
G|-----------------------------------------------------------------|-----------------------------------------------------------------|
D|-----------------------------------------------------------------|-----------------------------------------------------------------|
A|-----------------------------------------------------------------|-----------------------------------------------------------------|
E|-----------------------------------------------------------------|-----------------------------------------------------------------|

E|-----------------------------------------------------------------|-----------------------------------------------------------------|
B|-12--0---10--0---9---0---10--0---9---0---7---0---9---0---5---0---|-7---0---4---0---5---0---4---0---5---0---4---0---5---0---4---0---|
G|-----------------------------------------------------------------|-----------------------------------------------------------------|
D|-----------------------------------------------------------------|-----------------------------------------------------------------|
A|-----------------------------------------------------------------|-----------------------------------------------------------------|
E|-----------------------------------------------------------------|-----------------------------------------------------------------|

E|--------------------|---------|
B|-0------------------|---------|
G|-------%-----%------|-%-------|
D|-------%-----%------|-%-------|
A|--------------------|---------|
E|--------------------|---------|
ACDC - Thunderstruck (Techno Remix)
ACDC - Thunderstruck (Techno Remix).gp3