ACDC - TNT

AC-DC



Title: T.N.T.
Album: High Voltage
Artist: AC/DC
Author: Ronald Scott, Angus Young and Malcom Young

Track 1: Guitar 1
E|---------|---------|---------|-----------------------------|-------------------------------------|
B|---------|---------|---------|-----------------------------|-------------------------------------|
G|-1-------|-1-------|-1-------|-1-----%-----%----0-----2----|-2-----%---------2---------%----1----|
D|-2-------|-2-------|-2-------|-2-----%-----%----0-----2----|-2-----%---------2---------%----2----|
A|-2-------|-2-------|-2-------|-2----------------X-----0----|-0---------------0--------------2----|
E|-0-------|-0-------|-0-------|-0----------------3----------|------------3---------3---------0----|

E|-----------------------------|-------------------------------------|-----------------------------|
B|-----------------------------|-------------------------------------|-----------------------------|
G|-1-----%-----%----0-----2----|-2-----%---------2---------%----1----|-1-----%-----%----0-----2----|
D|-2-----%-----%----0-----2----|-2-----%---------2---------%----2----|-2-----%-----%----0-----2----|
A|-2----------------X-----0----|-0---------------0--------------2----|-2----------------X-----0----|
E|-0----------------3----------|------------3---------3---------0----|-0----------------3----------|

E|-------------------------------------|-----------------------------|-------------------------------------|
B|-------------------------------------|-----------------------------|-------------------------------------|
G|-2-----%---------2---------%----1----|-1-----%-----%----0-----2----|-2-----%---------2---------%----1----|
D|-2-----%---------2---------%----2----|-2-----%-----%----0-----2----|-2-----%---------2---------%----2----|
A|-0---------------0--------------2----|-2----------------X-----0----|-0---------------0--------------2----|
E|------------3---------3---------0----|-0----------------3----------|------------3---------3---------0----|

E|-----------------------------|-------------------------------------|-----------------------------|
B|-----------------------------|-------------------------------------|-----------------------------|
G|-1-----%-----%----0-----2----|-2-----%---------2---------%----1----|-1-----%-----%----0-----2----|
D|-2-----%-----%----0-----2----|-2-----%---------2---------%----2----|-2-----%-----%----0-----2----|
A|-2----------------X-----0----|-0---------------0--------------2----|-2----------------X-----0----|
E|-0----------------3----------|------------3---------3---------0----|-0----------------3----------|

E|-------------------------------------|-----------------------------|-------------------------------------|
B|-------------------------------------|-----------------------------|-------------------------------------|
G|-2-----%---------2---------%----1----|-1-----%-----%----0-----2----|-2-----%---------2---------%----1----|
D|-2-----%---------2---------%----2----|-2-----%-----%----0-----2----|-2-----%---------2---------%----2----|
A|-0---------------0--------------2----|-2----------------X-----0----|-0---------------0--------------2----|
E|------------3---------3---------0----|-0----------------3----------|------------3---------3---------0----|

E|-----------------------------|-------------------------------------|-----------------------------|
B|-----------------------------|-------------------------------------|-----------------------------|
G|-1-----%-----%----0-----2----|-2-----%---------2---------%----1----|-1-----%-----%----0-----2----|
D|-2-----%-----%----0-----2----|-2-----%---------2---------%----2----|-2-----%-----%----0-----2----|
A|-2----------------X-----0----|-0---------------0--------------2----|-2----------------X-----0----|
E|-0----------------3----------|------------3---------3---------0----|-0----------------3----------|

E|-------------------------------------|-----------------------------|-------------------------------------|
B|-------------------------------------|-----------------------------|-------------------------------------|
G|-2-----%---------2---------%----1----|-1-----%-----%----0-----2----|-2-----%---------2---------%----1----|
D|-2-----%---------2---------%----2----|-2-----%-----%----0-----2----|-2-----%---------2---------%----2----|
A|-0---------------0--------------2----|-2----------------X-----0----|-0---------------0--------------2----|
E|------------3---------3---------0----|-0----------------3----------|------------3---------3---------0----|

E|-----------------------------|-------------------------------------|-----------------------------|
B|-----------------------------|-------------------------------------|-----------------------------|
G|-1-----%-----%----0-----2----|-2-----%---------2---------%----1----|-1-----%-----%----0-----2----|
D|-2-----%-----%----0-----2----|-2-----%---------2---------%----2----|-2-----%-----%----0-----2----|
A|-2----------------X-----0----|-0---------------0--------------2----|-2----------------X-----0----|
E|-0----------------3----------|------------3---------3---------0----|-0----------------3----------|

E|---------|---------|-------------------------|---------|-------------------------|
B|---------|---------|-------------------------|---------|-------------------------|
G|-2-------|-2-------|-2-----------1-----%-----|-%-------|-2-----------1-----%-----|
D|-2-------|-2-------|-2-----------2-----%-----|-%-------|-2-----------2-----%-----|
A|-0-------|-0-------|-0-----------2-----------|---------|-0-----------2-----------|
E|---------|---------|-------3-----0-----------|---------|-------3-----0-----------|

E|---------|-------------------------|---------|-------------------------|-------------|
B|---------|-------------------------|---------|-------------------------|-------------|
G|-%-------|-2-----------1-----%-----|-%-------|-2-----------1-----%-----|-0------2----|
D|-%-------|-2-----------2-----%-----|-%-------|-2-----------2-----%-----|-0------2----|
A|---------|-0-----------2-----------|---------|-0-----------2-----------|-X------0----|
E|---------|-------3-----0-----------|---------|-------3-----0-----------|-3-----------|

E|---------|---------|-----------------------------|-------------------------------------|
B|---------|---------|-----------------------------|-------------------------------------|
G|-2-------|-2-------|-1-----%-----%----0-----2----|-2-----%---------2---------%----1----|
D|-2-------|-2-------|-2-----%-----%----0-----2----|-2-----%---------2---------%----2----|
A|-0-------|-0-------|-2----------------X-----0----|-0---------------0--------------2----|
E|---------|---------|-0----------------3----------|------------3---------3---------0----|

E|-----------------------------|-------------------------------------|-----------------------------|
B|-----------------------------|-------------------------------------|-----------------------------|
G|-1-----%-----%----0-----2----|-2-----%---------2---------%----1----|-1-----%-----%----0-----2----|
D|-2-----%-----%----0-----2----|-2-----%---------2---------%----2----|-2-----%-----%----0-----2----|
A|-2----------------X-----0----|-0---------------0--------------2----|-2----------------X-----0----|
E|-0----------------3----------|------------3---------3---------0----|-0----------------3----------|

E|-------------------------------------|-----------------------------|-------------------------------------|
B|-------------------------------------|-----------------------------|-------------------------------------|
G|-2-----%---------2---------%----1----|-1-----%-----%----0-----2----|-2-----%---------2---------%----1----|
D|-2-----%---------2---------%----2----|-2-----%-----%----0-----2----|-2-----%---------2---------%----2----|
A|-0---------------0--------------2----|-2----------------X-----0----|-0---------------0--------------2----|
E|------------3---------3---------0----|-0----------------3----------|------------3---------3---------0----|

E|-----------------------------|-------------------------------------|-----------------------------|
B|-----------------------------|-------------------------------------|-----------------------------|
G|-1-----%-----%----0-----2----|-2-----%---------2---------%----1----|-1-----%-----%----0-----2----|
D|-2-----%-----%----0-----2----|-2-----%---------2---------%----2----|-2-----%-----%----0-----2----|
A|-2----------------X-----0----|-0---------------0--------------2----|-2----------------X-----0----|
E|-0----------------3----------|------------3---------3---------0----|-0----------------3----------|

E|-------------------------------------|-----------------------------|-------------------------------------|
B|-------------------------------------|-----------------------------|-------------------------------------|
G|-2-----%---------2---------%----1----|-1-----%-----%----0-----2----|-2-----%---------2---------%----1----|
D|-2-----%---------2---------%----2----|-2-----%-----%----0-----2----|-2-----%---------2---------%----2----|
A|-0---------------0--------------2----|-2----------------X-----0----|-0---------------0--------------2----|
E|------------3---------3---------0----|-0----------------3----------|------------3---------3---------0----|

E|-----------------------------|-------------------------------------|-----------------------------|
B|-----------------------------|-------------------------------------|-----------------------------|
G|-1-----%-----%----0-----2----|-2-----%---------2---------%----1----|-1-----%-----%----0-----2----|
D|-2-----%-----%----0-----2----|-2-----%---------2---------%----2----|-2-----%-----%----0-----2----|
A|-2----------------X-----0----|-0---------------0--------------2----|-2----------------X-----0----|
E|-0----------------3----------|------------3---------3---------0----|-0----------------3----------|

E|-------------------------------------|-----------------------------|---------|---------|
B|-------------------------------------|-----------------------------|---------|---------|
G|-2-----%---------2---------%----1----|-1-----%-----%----0-----2----|-2-------|-2-------|
D|-2-----%---------2---------%----2----|-2-----%-----%----0-----2----|-2-------|-2-------|
A|-0---------------0--------------2----|-2----------------X-----0----|-0-------|-0-------|
E|------------3---------3---------0----|-0----------------3----------|---------|---------|

E|-------------------------|---------|-------------------------|---------|-------------------------|
B|-------------------------|---------|-------------------------|---------|-------------------------|
G|-2-----------1-----%-----|-%-------|-2-----------1-----%-----|-%-------|-2-----------1-----%-----|
D|-2-----------2-----%-----|-%-------|-2-----------2-----%-----|-%-------|-2-----------2-----%-----|
A|-0-----------2-----------|---------|-0-----------2-----------|---------|-0-----------2-----------|
E|-------3-----0-----------|---------|-------3-----0-----------|---------|-------3-----0-----------|

E|---------|-------------------------|-------------|---------|---------|-----------------------------|
B|---------|-------------------------|-------------|---------|---------|-----------------------------|
G|-%-------|-2-----------1-----%-----|-0------2----|-2-------|-2-------|-1-----%-----%----0-----2----|
D|-%-------|-2-----------2-----%-----|-0------2----|-2-------|-2-------|-2-----%-----%----0-----2----|
A|---------|-0-----------2-----------|-X------0----|-0-------|-0-------|-2----------------X-----0----|
E|---------|-------3-----0-----------|-3-----------|---------|---------|-0----------------3----------|

E|-------------------------------------|-----------------------------|-------------------------------------|
B|-------------------------------------|-----------------------------|-------------------------------------|
G|-2-----%---------2---------%----1----|-1-----%-----%----0-----2----|-2-----%---------2---------%----1----|
D|-2-----%---------2---------%----2----|-2-----%-----%----0-----2----|-2-----%---------2---------%----2----|
A|-0---------------0--------------2----|-2----------------X-----0----|-0---------------0--------------2----|
E|------------3---------3---------0----|-0----------------3----------|------------3---------3---------0----|

E|---------|-----------------------------|-------------------------------------|-----------------------------|
B|---------|-----------------------------|-------------------------------------|-----------------------------|
G|-1-------|-1-----%-----%----0-----2----|-2-----%---------2---------%----1----|-1-----%-----%----0-----2----|
D|-2-------|-2-----%-----%----0-----2----|-2-----%---------2---------%----2----|-2-----%-----%----0-----2----|
A|-2-------|-2----------------X-----0----|-0---------------0--------------2----|-2----------------X-----0----|
E|-0-------|-0----------------3----------|------------3---------3---------0----|-0----------------3----------|

E|-------------------------------------|-----------------------------|-------------------------------------|
B|-------------------------------------|-----------------------------|-------------------------------------|
G|-2-----%---------2---------%----1----|-1-----%-----%----0-----2----|-2-----%---------2---------%----1----|
D|-2-----%---------2---------%----2----|-2-----%-----%----0-----2----|-2-----%---------2---------%----2----|
A|-0---------------0--------------2----|-2----------------X-----0----|-0---------------0--------------2----|
E|------------3---------3---------0----|-0----------------3----------|------------3---------3---------0----|

E|-----------------------------|---------|---------|-------------------------|---------|
B|-----------------------------|---------|---------|-------------------------|---------|
G|-1-----%-----%----0-----2----|-2-------|-2-------|-2-----------1-----%-----|-%-------|
D|-2-----%-----%----0-----2----|-2-------|-2-------|-2-----------2-----%-----|-%-------|
A|-2----------------X-----0----|-0-------|-0-------|-0-----------2-----------|---------|
E|-0----------------3----------|---------|---------|-------3-----0-----------|---------|

E|-------------------------|---------|-------------------------|---------|-------------------------|
B|-------------------------|---------|-------------------------|---------|-------------------------|
G|-2-----------1-----%-----|-%-------|-2-----------1-----%-----|-%-------|-2-----------1-----%-----|
D|-2-----------2-----%-----|-%-------|-2-----------2-----%-----|-%-------|-2-----------2-----%-----|
A|-0-----------2-----------|---------|-0-----------2-----------|---------|-0-----------2-----------|
E|-------3-----0-----------|---------|-------3-----0-----------|---------|-------3-----0-----------|

E|---------|-------------------------|---------|-------------------------|---------|
B|---------|-------------------------|---------|-------------------------|---------|
G|-%-------|-2-----------1-----%-----|-%-------|-2-----------1-----%-----|-%-------|
D|-%-------|-2-----------2-----%-----|-%-------|-2-----------2-----%-----|-%-------|
A|---------|-0-----------2-----------|---------|-0-----------2-----------|---------|
E|---------|-------3-----0-----------|---------|-------3-----0-----------|---------|

E|-------------------------|-------------|--------|---------|---------|---------|---------|
B|-------------------------|-------------|--------|---------|---------|---------|---------|
G|-2-----------1-----%-----|-0------2----|-2------|-1-------|---------|---------|---------|
D|-2-----------2-----%-----|-0------2----|-2------|-2-------|-3-------|-4-------|-5-------|
A|-0-----------2-----------|-X------0----|-0------|-2-------|-3-------|-4-------|-5-------|
E|-------3-----0-----------|-3-----------|--------|-0-------|-1-------|-2-------|-3-------|

E|---------------|---------------|-------------------------|-------------------------|
B|---------------|---------------|-------------------------|-------------------------|
G|---------------|---------------|-------------------------|-------------------------|
D|-6------7------|-8------9------|-10----11----12----13----|-14----15----16----17----|
A|-6------7------|-8------9------|-10----11----12----13----|-14----15----16----17----|
E|-4------5------|-6------7------|-8-----9-----10----11----|-12----13----14----15----|

E|-------------------------|---------|---------|--------------------|---------|
B|-------------------------|---------|---------|--------------------|---------|
G|-------------------------|---------|-%-------|-1-----%-----%------|-%-------|
D|-18----19----20----21----|-21------|-%-------|-2-----%-----%------|-%-------|
A|-18----19----20----21----|-21------|---------|-2------------------|---------|
E|-16----17----18----19----|-19------|---------|-0------------------|---------|
ACDC - TNT
ACDC - TNT.gp3