ACDC - Touch Too Much

AC-DC



Title: Touch Too Much
Album: Highway To Hell
Artist: ACDC
Author: 

Track 1: Guitar 1
E|-0---------------------------------------|-0---------------------------------------|
B|-0---------------------------------------|-0---------------------------------------|
G|-----------------------------------------|-----------------------------------------|
D|-2----2----2----2----2----2----2----2----|-2----2----2----2----2----2----2----2----|
A|-2----2----2----2----2----2----2----2----|-2----2----2----2----2----2----2----2----|
E|-0----0----0----0----0----0----0----0----|-0----0----0----0----0----0----0----0----|

E|-0---------------------------------------|-0---------------------------------------|
B|-0---------------------------------------|-0---------------------------------------|
G|-----------------------------------------|-----------------------------------------|
D|-2----2----2----2----2----2----2----2----|-2----2----2----2----2----2----2----2----|
A|-2----2----2----2----2----2----2----2----|-2----2----2----2----2----2----2----2----|
E|-0----0----0----0----0----0----0----0----|-0----0----0----0----0----0----0----0----|

E|-0---------------------------------------|-----------------------------------------|
B|-0---------------------------------------|-----------------------------------------|
G|-----------------------------------------|-5----5----5----5----5----5----5----5----|
D|-2----2----2----2----2----2----2----2----|-5----5----5----5----5----5----5----5----|
A|-2----2----2----2----2----2----2----2----|-3----3----3----3----3----3----3----3----|
E|-0----0----0----0----0----0----0----0----|-----------------------------------------|

E|-----------------------------------------|-----------------------------------------|
B|-----------------------------------------|-3----2----2----3----2----2----3----2----|
G|-2----2----2----2----2----2----2----2----|-2----2----2----2----2----2----2----2----|
D|-2----2----2----2----2----2----2----2----|-2----2----2----2----2----2----2----2----|
A|-0----0----0----0----0----0----0----0----|-0----0----0----0----0----0----0----0----|
E|-----------------------------------------|-----------------------------------------|

E|-----------------------------------------|-----------------------------------------|
B|-----------------------------------------|-----------------------------------------|
G|-----------------------------------------|-5----5----5----5----5----5----5----5----|
D|-2----2----2----2----2----2----2----2----|-5----5----5----5----5----5----5----5----|
A|-2----2----2----2----2----2----2----2----|-3----3----3----3----3----3----3----3----|
E|-0----0----0----0----0----0----0----0----|-----------------------------------------|

E|-----------------------------------------|-----------------------------------------|
B|-----------------------------------------|-3----2----2----3----2----2----3----2----|
G|-2----2----2----2----2----2----2----2----|-2----2----2----2----2----2----2----2----|
D|-2----2----2----2----2----2----2----2----|-2----2----2----2----2----2----2----2----|
A|-0----0----0----0----0----0----0----0----|-0----0----0----0----0----0----0----0----|
E|-----------------------------------------|-----------------------------------------|

E|-----------------------------------------|-----------------------------------------|
B|-----------------------------------------|-----------------------------------------|
G|-5----5----5----5----5----5----5----5----|-5----5----5----5----5----5----5----5----|
D|-5----5----5----5----5----5----5----5----|-5----5----5----5----5----5----5----5----|
A|-3----3----3----3----3----3----3----3----|-3----3----3----3----3----3----3----3----|
E|-----------------------------------------|-----------------------------------------|

E|-----------------------------------------|-----------------------------------------|
B|-----------------------------------------|-----------------------------------------|
G|-2----2----2----2----2----2----2----2----|-2----2----2----2----2----2----2----2----|
D|-2----2----2----2----2----2----2----2----|-2----2----2----2----2----2----2----2----|
A|-0----0----0----0----0----0----0----0----|-0----0----0----0----0----0----0----0----|
E|-----------------------------------------|-----------------------------------------|

E|-----------------------------------------|-----------------------------------------|
B|-----------------------------------------|-----------------------------------------|
G|-5----5----5----5----5----5----5----5----|-5----5----5----5----5----5----5----5----|
D|-5----5----5----5----5----5----5----5----|-5----5----5----5----5----5----5----5----|
A|-3----3----3----3----3----3----3----3----|-3----3----3----3----3----3----3----3----|
E|-----------------------------------------|-----------------------------------------|

E|-----------------------------------------|-----------------------------------------|
B|-----------------------------------------|-----------------------------------------|
G|-7----7----7----7----7----7----7----7----|-7----7----7----7----7----7----7----7----|
D|-7----7----7----7----7----7----7----7----|-7----7----7----7----7----7----7----7----|
A|-5----5----5----5----5----5----5----5----|-5----5----5----5----5----5----5----5----|
E|-----------------------------------------|-----------------------------------------|

E|---------------------------------|-----------------------------------------|---------------------------------|
B|---------------------------------|-----------------------------------------|---------------------------------|
G|---------------------------------|-----------------------------------------|-------2-----2--------------5----|
D|-------2-----2--------------5----|-----------------------------------------|-------2-----2----2----2----5----|
A|-------2-----2----2----2----5----|------5----5----5----5----5----5----5----|-X-----0-----0----0----0----3----|
E|-X-----0-----0----0----0----3----|-X----3----3----3----3----3----3----3----|---------------------------------|

E|-------------------------------------|---------------------------------|-----------------------------------------|
B|-------------------------------------|---------------------------------|-----------------------------------------|
G|----------------7--------------------|---------------------------------|-----------------------------------------|
D|----------------7-----7----7----7----|-------2-----2--------------5----|-----------------------------------------|
A|-X----2----0----5-----5----5----5----|-------2-----2----2----2----5----|------5----5----5----5----5----5----5----|
E|-------------------------------------|-X-----0-----0----0----0----3----|-X----3----3----3----3----3----3----3----|

E|---------------------------------|-------------------------------------|-----------------------------------------|
B|---------------------------------|-------------------------------------|-----------------------------------------|
G|-------2-----2--------------5----|----------------7-----7----7----7----|-----------------------------------------|
D|-------2-----2----2----2----5----|----------------7-----7----7----7----|-2----2----2----2----2----2----2----2----|
A|-------0-----0----0----0----3----|-X----2----0----5-----5----5----5----|-2----2----2----2----2----2----2----2----|
E|-X-------------------------------|-------------------------------------|-0----0----0----0----0----0----0----0----|

E|-----------------------------------------|-----------------------------------------|
B|-----------------------------------------|-----------------------------------------|
G|-----------------------------------------|-2----2----2----2----2----2----2----5----|
D|-5----5----5----5----5----5----5----5----|-2----2----2----2----2----2----2----5----|
A|-5----5----5----5----5----5----5----5----|-0----0----0----0----0----0----0----3----|
E|-3----3----3----3----3----3----3----3----|-----------------------------------------|

E|-------------------------------------|-------------------------------------|---------|
B|-------------------------------------|-------------------------------------|---------|
G|----------------7--------------------|-------------------------------------|-%-------|
D|----------------7-----7----7----7----|-----------2--------------------5----|-%-------|
A|-X----2----0----5-----5----5----5----|-----------2-----2----2----2----5----|---------|
E|-------------------------------------|-X----X----0-----0----0----0----3----|---------|

E|-----------------------------------------|-----------------------------------------|
B|-----------------------------------------|-3----2----2----3----2----2----3----2----|
G|-----------------------------------------|-2----2----2----2----2----2----2----2----|
D|-2----2----2----2----2----2----2----2----|-2----2----2----2----2----2----2----2----|
A|-0----0----0----0----0----0----0----0----|-0----0----0----0----0----0----0----0----|
E|-----------------------------------------|-----------------------------------------|

E|-----------------------------------------|-----------------------------------------|
B|-----------------------------------------|-----------------------------------------|
G|-----------------------------------------|-----------------------------------------|
D|-2----2----2----2----2----2----2----2----|-2----2----2----2----2----2----2----2----|
A|-2----2----2----2----2----2----2----2----|-2----2----2----2----2----2----2----2----|
E|-0----0----0----0----0----0----0----0----|-0----0----0----0----0----0----0----0----|

E|-----------------------------------------|-----------------------------------------|
B|-----------------------------------------|-----------------------------------------|
G|-----------------------------------------|-----------------------------------------|
D|-2----2----2----2----2----2----2----2----|-5----5----5----5----5----5----5----5----|
A|-2----2----2----2----2----2----2----2----|-5----5----5----5----5----5----5----5----|
E|-0----0----0----0----0----0----0----0----|-3----3----3----3----3----3----3----3----|

E|-----------------------------------------|-----------------------------------------|
B|-----------------------------------------|-----------------------------------------|
G|-2----2----2----2----2----2----2----2----|-X----7----X----7----X----2----X----2----|
D|-2----2----2----2----2----2----2----2----|------7---------7---------2---------2----|
A|-0----0----0----0----0----0----0----0----|------5---------5---------0---------0----|
E|-----------------------------------------|-----------------------------------------|

E|-----------------------------------------|-----------------------------------------|
B|-----------------------------------------|-----------------------------------------|
G|-----------------------------------------|-----------------------------------------|
D|-2----2----2----2----2----2----2----2----|-5----5----5----5----5----5----5----5----|
A|-2----2----2----2----2----2----2----2----|-5----5----5----5----5----5----5----5----|
E|-0----0----0----0----0----0----0----0----|-3----3----3----3----3----3----3----3----|

E|-----------------------------------------|-----------------------------------------|
B|-----------------------------------------|-----------------------------------------|
G|-2----2----2----2----2----2----2----2----|------7---------7---------2---------2----|
D|-2----2----2----2----2----2----2----2----|------7---------7---------2---------2----|
A|-0----0----0----0----0----0----0----0----|-X----5----X----5----X----0----X----0----|
E|-----------------------------------------|-----------------------------------------|

E|-----------------------------------------|-----------------------------------------|
B|-----------------------------------------|-----------------------------------------|
G|-5----5----5----5----5----5----5----5----|-5----5----5----5----5----5----5----5----|
D|-5----5----5----5----5----5----5----5----|-5----5----5----5----5----5----5----5----|
A|-3----3----3----3----3----3----3----3----|-3----3----3----3----3----3----3----3----|
E|-----------------------------------------|-----------------------------------------|

E|-----------------------------------------|-----------------------------------------|
B|-----------------------------------------|-----------------------------------------|
G|-2----2----2----2----2----2----2----2----|-2----2----2----2----2----2----2----2----|
D|-2----2----2----2----2----2----2----2----|-2----2----2----2----2----2----2----2----|
A|-0----0----0----0----0----0----0----0----|-0----0----0----0----0----0----0----0----|
E|-----------------------------------------|-----------------------------------------|

E|-----------------------------------------|-----------------------------------------|
B|-----------------------------------------|-----------------------------------------|
G|-5----5----5----5----5----5----5----5----|-5----5----5----5----5----5----5----5----|
D|-5----5----5----5----5----5----5----5----|-5----5----5----5----5----5----5----5----|
A|-3----3----3----3----3----3----3----3----|-3----3----3----3----3----3----3----3----|
E|-----------------------------------------|-----------------------------------------|

E|-----------------------------------------|-----------------------------------------|
B|-----------------------------------------|-----------------------------------------|
G|-7----7----7----7----7----7----7----7----|-7----7----7----7----7----7----7----7----|
D|-7----7----7----7----7----7----7----7----|-7----7----7----7----7----7----7----7----|
A|-5----5----5----5----5----5----5----5----|-5----5----5----5----5----5----5----5----|
E|-----------------------------------------|-----------------------------------------|

E|---------------------------------|-----------------------------------------|---------------------------------|
B|---------------------------------|-----------------------------------------|---------------------------------|
G|---------------------------------|-----------------------------------------|-------2--------------------5----|
D|-------2-----2--------------5----|-----------------------------------------|-------2-----2----2----2----5----|
A|-X-----2-----2----2----2----5----|------5----5----5----5----5----5----5----|-------0-----0----0----0----3----|
E|-------0-----0----0----0----3----|-X----3----3----3----3----3----3----3----|-X-------------------------------|

E|-------------------------------------|---------------------------------|-----------------------------------------|
B|-------------------------------------|---------------------------------|-----------------------------------------|
G|----------------7--------------------|---------------------------------|-----------------------------------------|
D|----------------7-----7----7----7----|-------2-----2--------------5----|-----------------------------------------|
A|-X----2----0----5-----5----5----5----|-------2-----2----2----2----5----|------5----5----5----5----5----5----5----|
E|-------------------------------------|-X-----0-----0----0----0----3----|-X----3----3----3----3----3----3----3----|

E|---------------------------------|-------------------------------------|-----------------------------------------|
B|---------------------------------|-------------------------------------|-----------------------------------------|
G|-------2--------------------5----|----------------7-----7----7----7----|-----------------------------------------|
D|-------2-----2----2----2----5----|----------------7-----7----7----7----|-2----2----2----2----2----2----2----2----|
A|-X-----0-----0----0----0----3----|-X----2----0----5-----5----5----5----|-2----2----2----2----2----2----2----2----|
E|---------------------------------|-------------------------------------|-0----0----0----0----0----0----0----0----|

E|-----------------------------------------|-----------------------------------------|
B|-----------------------------------------|-----------------------------------------|
G|-----------------------------------------|-2----2----2----2----2----2----2----5----|
D|-5----5----5----5----5----5----5----5----|-2----2----2----2----2----2----2----5----|
A|-5----5----5----5----5----5----5----5----|-0----0----0----0----0----0----0----3----|
E|-3----3----3----3----3----3----3----3----|-----------------------------------------|

E|-------------------------------------|-------------------------------------|---------|
B|-------------------------------------|-------------------------------------|---------|
G|----------------7--------------------|-------------------------------------|-%-------|
D|----------------7-----7----7----7----|-------------------------------------|-%-------|
A|-X----2----0----5-----5----5----5----|-----------2-----2----2----2----5----|---------|
E|-------------------------------------|-X----X----0-----0----0----0----3----|---------|

E|-----------------------------------------|-----------------------------------------|
B|-----------------------------------------|-----------------------------------------|
G|-2----2----2----2----2----2----2----2----|-2----2----2----2----2----2----2----2----|
D|-2----2----2----2----2----2----2----2----|-2----2----2----2----2----2----2----2----|
A|-0----0----0----0----0----0----0----0----|-0----0----0----0----0----0----0----0----|
E|-----------------------------------------|-----------------------------------------|

E|-----------------------------------------|-----------------------------------------|
B|-----------------------------------------|-----------------------------------------|
G|-5----5----5----5----5----5----5----5----|-5----5----5----5----5----5----5----5----|
D|-5----5----5----5----5----5----5----5----|-5----5----5----5----5----5----5----5----|
A|-3----3----3----3----3----3----3----3----|-3----3----3----3----3----3----3----3----|
E|-----------------------------------------|-----------------------------------------|

E|-----------------------------------------|-----------------------------------------|
B|-----------------------------------------|-----------------------------------------|
G|-2----2----2----2----2----2----2----2----|-2----2----2----2----2----2----2----2----|
D|-2----2----2----2----2----2----2----2----|-2----2----2----2----2----2----2----2----|
A|-0----0----0----0----0----0----0----0----|-0----0----0----0----0----0----0----0----|
E|-----------------------------------------|-----------------------------------------|

E|-----------------------------------------|-----------------------------------------|
B|-----------------------------------------|-----------------------------------------|
G|-5----5----5----5----5----5----5----5----|-5----5----5----5----5----5----5----5----|
D|-5----5----5----5----5----5----5----5----|-5----5----5----5----5----5----5----5----|
A|-3----3----3----3----3----3----3----3----|-3----3----3----3----3----3----3----3----|
E|-----------------------------------------|-----------------------------------------|

E|-----------------------------------------|-----------------------------------------|
B|-----------------------------------------|-----------------------------------------|
G|-7----7----7----7----7----7----7----7----|-7----7----7----7----7----7----7----7----|
D|-7----7----7----7----7----7----7----7----|-7----7----7----7----7----7----7----7----|
A|-5----5----5----5----5----5----5----5----|-5----5----5----5----5----5----5----5----|
E|-----------------------------------------|-----------------------------------------|

E|-----------------------------------------|-----------------------------------------|
B|-----------------------------------------|-----------------------------------------|
G|-------------------------------2----2----|-2----2----2---------2----4----4----4----|
D|-2----2----2----5----5----5----2----2----|-2----2----2----5----2----4----4----4----|
A|-2----2----2----5----5----5----0----0----|-0----0----0----5----0----2----2----2----|
E|-0----0----0----3----3----3--------------|----------------3------------------------|

E|-----------------------------------------|-----------------------------------------|
B|-----------------------------------------|-----------------------------------------|
G|-5----5----5----2----2----2--------------|-----------------------------------------|
D|-5----5----5----2----2----2----2----2----|-2----2----2----2----2----2----2----2----|
A|-3----3----3----0----0----0----2----2----|-2----2----2----2----2----2----2----2----|
E|-------------------------------0----0----|-0----0----0----0----0----0----0----0----|

E|---------|---------|
B|---------|---------|
G|-%-------|-%-------|
D|-%-------|-%-------|
A|---------|---------|
E|---------|---------|
ACDC - Touch Too Much
ACDC - Touch Too Much.gp3