ACDC - Walk All Over You

AC-DC



Title: Walk All Over You
Album: Highway to hell
Artist: AC/DC
Author: Angus Young, Malcom Young and Bon Scott

Track 1: Guitar 1
E|----------------------|-3------2------|---------|---------|--------3----3-----2-----|
B|----------------------|-3------3------|---------|---------|--------3----3-----3-----|
G|-1--------------------|-0------2------|-2-------|-2-------|-1------0----0-----2-----|
D|-2-------2------------|-0------0------|-2-------|-2-------|-2------0----0-----0-----|
A|-2-------2------------|---------------|-0-------|-0-------|-2-----------------------|
E|-0-------0----0---2---|-3-------------|---------|---------|-0------3----3-----------|

E|-2-----------------------|--------3----3-----2-----|-2---------------------------|
B|-3-----------3----2------|--------3----3-----3-----|-3---------------3----2------|
G|-2----2------2----2------|--------0----0-----2-----|-2----2-----2----2----2------|
D|-0----2------2----2------|-2------0----0-----0-----|-0----2-----2----2----2------|
A|------0------0----0------|-2-----------------------|------0-----0----0----0------|
E|-------------------------|-0------3----3-----------|-----------------------------|

E|------------3----3----3----2-----|-2---------------------------|------------3----3----3----2-----|
B|------------3----3----3----3-----|-3----------2----3----2------|------------3----3----3----3-----|
G|-1-----1----0----0----0----2-----|-2----2-----2----2----2------|-1-----1----0----0----0----2-----|
D|-2-----2----0----0----0----0-----|-0----2-----2----2----2------|-2-----2----0----0----0----0-----|
A|-2-----2-------------------------|------0-----0----0----0------|-2-----2-------------------------|
E|-0-----0----3----3----3----------|-----------------------------|-0-----0----3----3----3----------|

E|-2-----------------------------------|---------|---------|-3------3----3-----3-----|
B|-3----------2----3----2----2----2----|---------|---------|-3------3----3-----3-----|
G|-2----2-----2----2----2----2----2----|-1-------|-1-------|-0------0----0-----0-----|
D|-0----2-----2----2----2----2----2----|-2-------|-2-------|-0------0----0-----0-----|
A|------0-----0----0----0----0----0----|-2-------|-2-------|-------------------------|
E|-------------------------------------|-0-------|-0-------|-3------3----3-----3-----|

E|-3----2------2-----2-----|---------|---------|-3------3----3-----3-----|-3----2------2-----2-----|
B|-3----3------3-----3-----|---------|---------|-3------3----3-----3-----|-3----3------3-----3-----|
G|-0----2------2-----2-----|-1-------|-1-------|-0------0----0-----0-----|-0----2------2-----2-----|
D|-0----0------0-----0-----|-2-------|-2-------|-0------0----0-----0-----|-0----0------0-----0-----|
A|-------------------------|-2-------|-2-------|-------------------------|-------------------------|
E|-3-----------------------|-0-------|-0-------|-3------3----3-----3-----|-3-----------------------|

E|---------|---------|-3------3----3-----3-----|-3----2------2-----2-----|---------|
B|---------|---------|-3------3----3-----3-----|-3----3------3-----3-----|---------|
G|-1-------|-1-------|-0------0----0-----0-----|-0----2------2-----2-----|-2-------|
D|-2-------|-2-------|-0------0----0-----0-----|-0----0------0-----0-----|-2-------|
A|-2-------|-2-------|-------------------------|-------------------------|-0-------|
E|-0-------|-0-------|-3------3----3-----3-----|-3-----------------------|---------|

E|---------|-------------------------|-------------------------|---------|---------|
B|---------|--------3----3-----------|------3------------------|---------|---------|
G|-2-------|-2------2----2-----2-----|-2----2------2-----2-----|-1-------|-1-------|
D|-2-------|-2------0----0-----2-----|-2----0------2-----2-----|-2-------|-2-------|
A|-0-------|-0-----------------0-----|-------------0-----0-----|-2-------|-2-------|
E|---------|-------------------------|-------------------------|-0-------|-0-------|

E|-3------3----3-----3-----|-3----2------2-----2-----|---------|---------|-3------3----3-----3-----|
B|-3------3----3-----3-----|-3----3------3-----3-----|---------|---------|-3------3----3-----3-----|
G|-0------0----0-----0-----|-0----2------2-----2-----|-1-------|-1-------|-0------0----0-----0-----|
D|-0------0----0-----0-----|-0----0------0-----0-----|-2-------|-2-------|-0------0----0-----0-----|
A|-------------------------|-------------------------|-2-------|-2-------|-------------------------|
E|-3------3----3-----3-----|-3-----------------------|-0-------|-0-------|-3------3----3-----3-----|

E|-3----2------2-----2-----|---------|---------|-3------3----3-----3-----|-3----2------2-----2-----|
B|-3----3------3-----3-----|---------|---------|-3------3----3-----3-----|-3----3------3-----3-----|
G|-0----2------2-----2-----|-1-------|-1-------|-0------0----0-----0-----|-0----2------2-----2-----|
D|-0----0------0-----0-----|-2-------|-2-------|-0------0----0-----0-----|-0----0------0-----0-----|
A|-------------------------|-2-------|-2-------|-------------------------|-------------------------|
E|-3-----------------------|-0-------|-0-------|-3------3----3-----3-----|-3-----------------------|

E|---------|---------|-------------------------|-------------------------|----------------------|
B|---------|---------|--------3----3-----------|------3------------------|----------------------|
G|-2-------|-2-------|-2------2----2-----2-----|-2----2------2-----2-----|----------------------|
D|-2-------|-2-------|-2------0----0-----2-----|-2----0------2-----2-----|-2-------2------------|
A|-0-------|-0-------|-0-----------------0-----|-------------0-----0-----|-2-------2------------|
E|---------|---------|-------------------------|-------------------------|-0-------0---0---2----|

E|---------------|----------------------|---------------|----------------------|---------------|
B|-3------3------|----------------------|-3------3------|----------------------|-3------3------|
G|-0------2------|----------------------|-0------2------|----------------------|-0------2------|
D|-0------0------|-2-------2------------|-0------0------|-2-------2------------|-0------0------|
A|---------------|-2-------2------------|---------------|-2-------2------------|---------------|
E|-3-------------|-0-------0---0---2----|-3-------------|-0-------0---0---2----|-3-------------|

E|---------|---------|-------------------------|-------------------------|--------3----3-----2-----|
B|---------|---------|--------3----3-----------|------3------------------|--------3----3-----3-----|
G|-2-------|-2-------|-2------2----2-----2-----|-2----2------2-----2-----|-1------0----0-----2-----|
D|-2-------|-2-------|-2------0----0-----2-----|-2----0------2-----2-----|-2------0----0-----0-----|
A|-0-------|-0-------|-0-----------------0-----|-------------0-----0-----|-2-----------------------|
E|---------|---------|-------------------------|-------------------------|-0------3----3-----------|

E|-2-----------------------|--------3----3-----2-----|-2---------------------------|
B|-3-----------3----2------|--------3----3-----3-----|-3---------------3----2------|
G|-2----2------2----2------|--------0----0-----2-----|-2----2-----2----2----2------|
D|-0----2------2----2------|-2------0----0-----0-----|-0----2-----2----2----2------|
A|------0------0----0------|-2-----------------------|------0-----0----0----0------|
E|-------------------------|-0------3----3-----------|-----------------------------|

E|-2---------------------------|---------|---------|-3------3----3-----3-----|-3----2------2-----2-----|
B|-3---------------3----2------|---------|---------|-3------3----3-----3-----|-3----3------3-----3-----|
G|-4----2-----2----2----2------|-1-------|-1-------|-0------0----0-----0-----|-0----2------2-----2-----|
D|-0----2-----2----2----2------|-2-------|-2-------|-0------0----0-----0-----|-0----0------0-----0-----|
A|------0-----0----0----0------|-2-------|-2-------|-------------------------|-------------------------|
E|-----------------------------|-0-------|-0-------|-3------3----3-----3-----|-3-----------------------|

E|---------|---------|-3------3----3-----3-----|-3----2------2-----2-----|---------|
B|---------|---------|-3------3----3-----3-----|-3----3------3-----3-----|---------|
G|-1-------|-1-------|-0------0----0-----0-----|-0----2------2-----2-----|-1-------|
D|-2-------|-2-------|-0------0----0-----0-----|-0----0------0-----0-----|-2-------|
A|-2-------|-2-------|-------------------------|-------------------------|-2-------|
E|-0-------|-0-------|-3------3----3-----3-----|-3-----------------------|-0-------|

E|---------|-3------3----3-----3-----|-3----2------2-----2-----|---------|---------|
B|---------|-3------3----3-----3-----|-3----3------3-----3-----|---------|---------|
G|-1-------|-0------0----0-----0-----|-0----2------2-----2-----|-2-------|-2-------|
D|-2-------|-0------0----0-----0-----|-0----0------0-----0-----|-2-------|-2-------|
A|-2-------|-------------------------|-------------------------|-0-------|-0-------|
E|-0-------|-3------3----3-----3-----|-3-----------------------|---------|---------|

E|-------------------------|-------------------------|----------------------|---------------|
B|--------3----3-----------|------3------------------|----------------------|-3------3------|
G|-2------2----2-----2-----|-2----2------2-----2-----|----------------------|-0------2------|
D|-2------0----0-----2-----|-2----0------2-----2-----|-2-------2------------|-0------0------|
A|-0-----------------0-----|-------------0-----0-----|-2-------2------------|---------------|
E|-------------------------|-------------------------|-0-------0---0---2----|-3-------------|

E|----------------------|---------------|----------------------|---------------|-------------------------|
B|----------------------|-3------3------|----------------------|-3------3------|-2------3----3-----2-----|
G|----------------------|-0------2------|----------------------|-0------2------|-2------2----2-----2-----|
D|-2-------2------------|-0------0------|-2-------2------------|-0------0------|-2------4----4-----2-----|
A|-2-------2------------|---------------|-2-------2------------|---------------|-0------0----0-----0-----|
E|-0-------0---0---2----|-3-------------|-0-------0---0---2----|-3-------------|-------------------------|

E|---------|---------------------------------|-----------------------------|--------3----3-----2-----|
B|-2-------|-2-----2----3----3----3----2-----|-2----3-----3----2-----3-----|--------3----3-----3-----|
G|-2-------|-2-----2----2----2----2----2-----|-2----2-----2----2-----2-----|-1------0----0-----2-----|
D|-2-------|-2-----2----4----4----4----2-----|-2----4-----4----2-----4-----|-2------0----0-----0-----|
A|-0-------|-0-------------------------0-----|-----------------0-----------|-2-----------------------|
E|---------|---------------------------------|-----------------------------|-0------3----3-----------|

E|-2-----------------------|--------3----3-----2-----|-2---------------------------|
B|-3-----------3----2------|--------3----3-----3-----|-3---------------3----2------|
G|-2----2------2----2------|--------0----0-----2-----|-2----2-----2----2----2------|
D|-0----2------2----2------|-2------0----0-----0-----|-0----2-----2----2----2------|
A|------0------0----0------|-2-----------------------|------0-----0----0----0------|
E|-------------------------|-0------3----3-----------|-----------------------------|

E|--------3----3-----2-----|-2-----------------------|--------3----3-----2-----|-2---------------------------|
B|--------3----3-----3-----|-3-----------3----2------|--------3----3-----3-----|-3---------------3----2------|
G|-1------0----0-----2-----|-2----2------2----2------|--------0----0-----2-----|-2----2-----2----2----2------|
D|-2------0----0-----0-----|-0----2------2----2------|-2------0----0-----0-----|-0----2-----2----2----2------|
A|-2-----------------------|------0------0----0------|-2-----------------------|------0-----0----0----0------|
E|-0------3----3-----------|-------------------------|-0------3----3-----------|-----------------------------|

E|--------3----3-----2-----|-2-----------------------|--------3----3-----2-----|-2---------------------------|
B|--------3----3-----3-----|-3-----------3----2------|--------3----3-----3-----|-3---------------3----2------|
G|-1------0----0-----2-----|-2----2------2----2------|--------0----0-----2-----|-2----2-----2----2----2------|
D|-2------0----0-----0-----|-0----2------2----2------|-2------0----0-----0-----|-0----2-----2----2----2------|
A|-2-----------------------|------0------0----0------|-2-----------------------|------0-----0----0----0------|
E|-0------3----3-----------|-------------------------|-0------3----3-----------|-----------------------------|

E|--------3----3-----2-----|-2-----------------------|--------3----3-----2-----|-2---------------------------|
B|--------3----3-----3-----|-3-----------3----2------|--------3----3-----3-----|-3---------------3----2------|
G|-1------0----0-----2-----|-2----2------2----2------|--------0----0-----2-----|-2----2-----2----2----2------|
D|-2------0----0-----0-----|-0----2------2----2------|-2------0----0-----0-----|-0----2-----2----2----2------|
A|-2-----------------------|------0------0----0------|-2-----------------------|------0-----0----0----0------|
E|-0------3----3-----------|-------------------------|-0------3----3-----------|-----------------------------|

E|-3------3----3-----3-----|-3----3------3-----3-----|-------------------------|-------------------------|
B|-3------3----3-----3-----|-3----3------3-----3-----|-------------------------|-------------------------|
G|-0------0----0-----0-----|-0----0------0-----0-----|-2------2----2-----2-----|-2----2------2-----2-----|
D|-0------0----0-----0-----|-0----0------0-----0-----|-2------2----2-----2-----|-2----2------2-----2-----|
A|-------------------------|-------------------------|-0------0----0-----0-----|-0----0------0-----0-----|
E|-3------3----3-----3-----|-3----3------3-----3-----|-------------------------|-------------------------|

E|-3------3----3-----3-----|-3----3------3-----3-----|-------------------------|-------------------------|
B|-3------3----3-----3-----|-3----3------3-----3-----|-------------------------|-------------------------|
G|-0------0----0-----0-----|-0----0------0-----0-----|-2------2----2-----2-----|-2----4------4-----4-----|
D|-0------0----0-----0-----|-0----0------0-----0-----|-2------2----2-----2-----|-2----4------4-----4-----|
A|-------------------------|-------------------------|-0------0----0-----0-----|-0----2------2-----2-----|
E|-3------3----3-----3-----|-3----3------3-----3-----|-------------------------|-------------------------|

E|--------3----3-----2-----|-2-----------------------|--------3----3-----2-----|-2---------------------------|
B|--------3----3-----3-----|-3-----------3----2------|--------3----3-----3-----|-3---------------3----2------|
G|-1------0----0-----2-----|-2----2------2----2------|--------0----0-----2-----|-2----2-----2----2----2------|
D|-2------0----0-----0-----|-0----2------2----2------|-2------0----0-----0-----|-0----2-----2----2----2------|
A|-2-----------------------|------0------0----0------|-2-----------------------|------0-----0----0----0------|
E|-0------3----3-----------|-------------------------|-0------3----3-----------|-----------------------------|

E|--------3----3-----2-----|-2-----------------------|--------3----3-----2-----|-2---------------------------|
B|--------3----3-----3-----|-3-----------3----2------|--------3----3-----3-----|-3---------------3----2------|
G|-1------0----0-----2-----|-2----2------2----2------|--------0----0-----2-----|-2----2-----2----2----2------|
D|-2------0----0-----0-----|-0----2------2----2------|-2------0----0-----0-----|-0----2-----2----2----2------|
A|-2-----------------------|------0------0----0------|-2-----------------------|------0-----0----0----0------|
E|-0------3----3-----------|-------------------------|-0------3----3-----------|-----------------------------|

E|-----------------------------|---------------------------------|-----------------------------------------|
B|-----------------------------|---------------------------------|-3----3----3----3----3----3----3----3----|
G|-1---------------1-----------|------1----1-----1---------------|-0----0----0----0----0----0----0----0----|
D|-2-----2----2----2-----2-----|-2----2----2-----2-----2----2----|-0----0----0----0----0----0----0----0----|
A|-2-----2----2----2-----2-----|-2----2----2-----2-----2----2----|-----------------------------------------|
E|-0-----0----0----0-----0-----|-0----0----0-----0-----0----0----|-3----3----0----3----3----3----3----3----|

E|-----------------------------|-----------------------------|---------------------------------|
B|------3----3-----3-----3-----|-----------------------------|---------------------------------|
G|-%----2----2-----2-----2-----|-1---------------1-----------|------1----1-----1---------------|
D|-%----0----0-----0-----0-----|-2-----2----2----2-----2-----|-2----2----2-----2-----2----2----|
A|-----------------------------|-2-----2----2----2-----2-----|-2----2----2-----2-----2----2----|
E|-----------------------------|-0-----0----0----0-----0-----|-0----0----0-----0-----0----0----|

E|-----------------------------------------|-----------------------------|-----------------------------|
B|-3----3----3----3----3----3----3----3----|------3----3-----3-----3-----|-----------------------------|
G|-0----0----0----0----0----0----0----0----|-%----2----2-----2-----2-----|-1---------------1-----------|
D|-0----0----0----0----0----0----0----0----|-%----0----0-----0-----0-----|-2-----2----2----2-----2-----|
A|-----------------------------------------|-----------------------------|-2-----2----2----2-----2-----|
E|-3----3----0----3----3----3----3----3----|-----------------------------|-0-----0----0----0-----0-----|

E|---------------------------------|-----------------------------------------|-----------------------------|
B|---------------------------------|-3----3----3----3----3----3----3----3----|------3----3-----3-----3-----|
G|------1----1-----1---------------|-0----0----0----0----0----0----0----0----|-%----2----2-----2-----2-----|
D|-2----2----2-----2-----2----2----|-0----0----0----0----0----0----0----0----|-%----0----0-----0-----0-----|
A|-2----2----2-----2-----2----2----|-----------------------------------------|-----------------------------|
E|-0----0----0-----0-----0----0----|-3----3----0----3----3----3----3----3----|-----------------------------|

E|---------|---------|-------------------------|-------------------------|----------------------|
B|---------|---------|--------3----3-----------|------3------------------|----------------------|
G|-2-------|-2-------|-2------2----2-----2-----|-2----2------2-----2-----|----------------------|
D|-2-------|-2-------|-2------0----0-----2-----|-2----0------2-----2-----|-2-------2------------|
A|-0-------|-0-------|-0-----------------0-----|-------------0-----0-----|-2-------2------------|
E|---------|---------|-------------------------|-------------------------|-0-------0---0---2----|

E|---------------|----------------------|---------------|----------------------|---------------|
B|-3------3------|----------------------|-3------3------|----------------------|-3------3------|
G|-0------2------|----------------------|-0------2------|----------------------|-0------2------|
D|-0------0------|-2-------2------------|-0------0------|-2-------2------------|-0------0------|
A|---------------|-2-------2------------|---------------|-2-------2------------|---------------|
E|-3-------------|-0-------0---0---2----|-3-------------|-0-------0---0---2----|-3-------------|

E|-------------------------|-------------------------|-------------------------|---------|
B|-------------------------|-------------------------|-------------------------|---------|
G|-%-----%-----%-----%-----|-%-----%-----%-----%-----|-%-----%-----%-----%-----|-2-------|
D|-%-----%-----%-----%-----|-%-----%-----%-----%-----|-%-----%-----%-----%-----|---------|
A|-------------------------|-------------------------|-------------------------|---------|
E|-------------------------|-------------------------|-------------------------|---------|

E|--------------------|---------------|
B|--------------------|---------------|
G|-2------%-----%-----|--------%------|
D|--------%-----%-----|-2------%------|
A|--------------------|-2-------------|
E|--------------------|-0-------------|
ACDC - Walk All Over You
ACDC - Walk All Over You.gp4