ACDC - What Do You Do For Money Honey

AC-DC



Title: What do you do for money, honey
Album: Back in Black
Artist: AC/DC
Author: Angus Young, Malcom Young and Brian Johnson

Track 1: Guitar 1
E|--------3----3------|-3----2----2----------------|--------3----3------|-3----2----2----------------|
B|--------3----3------|-3----3----3----2----2------|--------3----3------|-3----3----3----2----2------|
G|--------0----0------|-0----2----2----2----2------|--------0----0------|-0----2----2----2----2------|
D|-2------0----0------|-0----0----0----2----2------|-2------0----0------|-0----0----0----2----2------|
A|-2------------------|----------------0----0------|-2------------------|----------------0----0------|
E|-0------3----3------|-3--------------------------|-0------3----3------|-3--------------------------|

E|--------3----3------|-3----2----2----------------|--------3----3------|-3-------|
B|--------3----3------|-3----3----3----2----2------|--------3----3------|-3-------|
G|--------0----0------|-0----2----2----2----2------|--------0----0------|-0-------|
D|-2------0----0------|-0----0----0----2----2------|-2------0----0------|-0-------|
A|-2------------------|----------------0----0------|-2------------------|---------|
E|-0------3----3------|-3--------------------------|-0------3----3------|-3-------|

E|---------------------------------|-------------------------------------|---------------------------------|
B|---------------------------------|------------3---------3--------------|---------------------------------|
G|-9----%-----7----%-----%----7----|-%-----%----0----%----2----%----7----|-9----%-----7----%-----%----7----|
D|-9----%-----7----%-----%----7----|-%-----%----0----%----0----%----7----|-9----%-----7----%-----%----7----|
A|-7----------5---------------4----|--------------------------------5----|-7----------5---------------4----|
E|-0-------------------------------|------------3---------2--------------|---------------------------------|

E|------------3----3----2----------|---------------------------------|-------------------------------------|
B|------------3----3----3----------|---------------------------------|------------3---------3--------------|
G|-%-----%----0----0----2-----7----|-9----%-----7----%-----%----7----|-%-----%----0----%----2----%----7----|
D|-%-----%----0----0----0-----7----|-9----%-----7----%-----%----7----|-%-----%----0----%----0----%----7----|
A|----------------------------5----|-7----------5---------------4----|--------------------------------5----|
E|------------3----3----2-----0----|-0-------------------------------|------------3---------2--------------|

E|---------------------------------|------------3----3----2----------|---------------------------------|
B|---------------------------------|------------3----3----3----------|---------------------------------|
G|-9----%-----7----%-----%----7----|-%-----%----0----0----2-----7----|-9----%-----7----%-----%----6----|
D|-9----%-----7----%-----%----7----|-%-----%----0----0----0-----7----|-9----%-----7----%-----%----7----|
A|-7----------5---------------4----|----------------------------5----|-7----------5---------------4----|
E|---------------------------------|------------3----3----2-----0----|-0-------------------------------|

E|-------------------------------------|---------------------------------|-------------------------|
B|------------3---------3--------------|---------------------------------|-------------------------|
G|-%-----%----0----%----2----%----7----|-9----%-----7----%-----%----6----|-%-----------------------|
D|-%-----%----0----%----0----%----7----|-9----%-----7----%-----%----7----|-%-----------------------|
A|--------------------------------5----|-7----------5---------------4----|-------------------------|
E|------------3---------2---------0----|-0-------------------------------|------0------0-----0-----|

E|---------------------------------|-------------------------------------|---------------------------------|
B|---------------------------------|------------3---------3--------------|---------------------------------|
G|-9----%-----7----%-----%----6----|-%-----%----0----%----2----%----7----|-9----%-----7----%-----%----6----|
D|-9----%-----7----%-----%----7----|-%-----%----0----%----0----%----7----|-9----%-----7----%-----%----7----|
A|-7----------5---------------4----|--------------------------------5----|-7----------5---------------4----|
E|-0-------------------------------|------------3---------2---------0----|-0-------------------------------|

E|-------------------------|-------------------------|------------3----3----2----------|
B|-------------------------|-------------------------|------------3----3----3----------|
G|-%-----------------------|-9------7----7------7----|-7----------0----0----2----------|
D|-%-----------------------|-9------7----7------7----|-7----------0----0----0----------|
A|-------------------------|-7------5----5------4----|-4-------------------------------|
E|------0------0-----0-----|-0-----------------------|-------3----3----3----2-----0----|

E|-------------------------|-----------------------------------------|-----------------------------------------|
B|-------------------------|-----------------------------------------|-----------------------------------------|
G|-9------7----7------2----|-2----2----2----2----2----2----2----2----|-2----2----2----2----2----2----2----2----|
D|-9------7----7------2----|-2----2----2----2----2----2----2----2----|-2----2----2----2----2----2----2----2----|
A|-7------5----5------0----|-0----0----0----0----0----0----0----0----|-0----0----0----0----0----0----0----0----|
E|-0-----------------------|-----------------------------------------|-----------------------------------------|

E|--------3----3------|-3----2----2----------------|--------3----3------|-3----2----2----------------|
B|--------3----3------|-3----3----3----2----2------|--------3----3------|-3----3----3----2----2------|
G|--------0----0------|-0----2----2----2----2------|--------0----0------|-0----2----2----2----2------|
D|-2------0----0------|-0----0----0----2----2------|-2------0----0------|-0----0----0----2----2------|
A|-2------------------|----------------0----0------|-2------------------|----------------0----0------|
E|-0------3----3------|-3--------------------------|-0------3----3------|-3--------------------------|

E|--------3----3------|-3----2----2----------------|--------3----3------|-3----2----2----------------|
B|--------3----3------|-3----3----3----2----2------|--------3----3------|-3----3----3----2----2------|
G|--------0----0------|-0----2----2----2----2------|--------0----0------|-0----2----2----2----2------|
D|-2------0----0------|-0----0----0----2----2------|-2------0----0------|-0----0----0----2----2------|
A|-2------------------|----------------0----0------|-2------------------|----------------0----0------|
E|-0------3----3------|-3--------------------------|-0------3----3------|-3--------------------------|

E|-------------------------|------------3----3----2----------|-------------------------|
B|-------------------------|------------3----3----3----------|-------------------------|
G|-9------7----7------7----|-7----------0----0----2----------|-9------7----7------7----|
D|-9------7----7------7----|-7----------0----0----0----------|-9------7----7------7----|
A|-7------5----5------4----|-4-------------------------------|-7------5----5------4----|
E|-0-----------------------|-------3----3----3----2-----0----|-0-----------------------|

E|------------3----3----2----------|---------------------------------|-------------------------------------|
B|------------3----3----3----------|---------------------------------|------------3---------3--------------|
G|-7----------0----0----2----------|-9----%-----7----%-----%----7----|-%-----%----0----%----2----%----7----|
D|-7----------0----0----0----------|-9----%-----7----%-----%----7----|-%-----%----0----%----0----%----7----|
A|-4-------------------------------|-7----------5---------------4----|--------------------------------5----|
E|-------3----3----3----2-----0----|-0-------------------------------|------------3---------2--------------|

E|---------------------------------|------------3----3----2----------|---------------------------------|
B|---------------------------------|------------3----3----3----------|---------------------------------|
G|-9----%-----7----%-----%----7----|-%-----%----0----0----2-----7----|-9----%-----7----%-----%----6----|
D|-9----%-----7----%-----%----7----|-%-----%----0----0----0-----7----|-9----%-----7----%-----%----7----|
A|-7----------5---------------4----|----------------------------5----|-7----------5---------------4----|
E|---------------------------------|------------3----3----2-----0----|-0-------------------------------|

E|-------------------------------------|---------------------------------|-------------------------|
B|------------3---------3--------------|---------------------------------|-------------------------|
G|-%-----%----0----%----2----%----7----|-9----%-----7----%-----%----6----|-%-----------------------|
D|-%-----%----0----%----0----%----7----|-9----%-----7----%-----%----7----|-%-----------------------|
A|--------------------------------5----|-7----------5---------------4----|-------------------------|
E|------------3---------2---------0----|-0-------------------------------|------0------0-----0-----|

E|---------------------------------|-------------------------------------|---------------------------------|
B|---------------------------------|------------3---------3--------------|---------------------------------|
G|-9----%-----7----%-----%----6----|-%-----%----0----%----2----%----7----|-9----%-----7----%-----%----6----|
D|-9----%-----7----%-----%----7----|-%-----%----0----%----0----%----7----|-9----%-----7----%-----%----7----|
A|-7----------5---------------4----|--------------------------------5----|-7----------5---------------4----|
E|-0-------------------------------|------------3---------2---------0----|-0-------------------------------|

E|-------------------------|-------------------------|------------3----3----2----------|
B|-------------------------|-------------------------|------------3----3----3----------|
G|-%-----------------------|-9------7----7------7----|-7----------0----0----2----------|
D|-%-----------------------|-9------7----7------7----|-7----------0----0----0----------|
A|-------------------------|-7------5----5------4----|-4-------------------------------|
E|------0------0-----0-----|-0-----------------------|-------3----3----3----2-----0----|

E|-------------------------|-----------------------------------------|-----------------------------------------|
B|-------------------------|-----------------------------------------|-----------------------------------------|
G|-9------7----7------2----|-2----2----2----2----2----2----2----2----|-2----2----2----2----2----2----2----2----|
D|-9------7----7------2----|-2----2----2----2----2----2----2----2----|-2----2----2----2----2----2----2----2----|
A|-7------5----5------0----|-0----0----0----0----0----0----0----0----|-0----0----0----0----0----0----0----0----|
E|-0-----------------------|-----------------------------------------|-----------------------------------------|

E|--------3----3------|-3----2----2----------------|--------3----3------|-3----2----2----------------|
B|--------3----3------|-3----3----3----2----2------|--------3----3------|-3----3----3----2----2------|
G|--------0----0------|-0----2----2----2----2------|--------0----0------|-0----2----2----2----2------|
D|-2------0----0------|-0----0----0----2----2------|-2------0----0------|-0----0----0----2----2------|
A|-2------------------|----------------0----0------|-2------------------|----------------0----0------|
E|-0------3----3------|-3--------------------------|-0------3----3------|-3--------------------------|

E|--------3----3------|-3----2----2----------------|--------3----3------|-3----2----2----------------|
B|--------3----3------|-3----3----3----2----2------|--------3----3------|-3----3----3----2----2------|
G|--------0----0------|-0----2----2----2----2------|--------0----0------|-0----2----2----2----2------|
D|-2------0----0------|-0----0----0----2----2------|-2------0----0------|-0----0----0----2----2------|
A|-2------------------|----------------0----0------|-2------------------|----------------0----0------|
E|-0------3----3------|-3--------------------------|-0------3----3------|-3--------------------------|

E|------------------------|------------------------|---------|-------------------------|
B|------------------------|------------------------|---------|-------------------------|
G|-9----%----%-----%------|-9----%----%-----%------|-9-------|-9-----%-----%-----%-----|
D|-9----%----%-----%------|-9----%----%-----%------|-9-------|-9-----%-----%-----%-----|
A|-7----------------------|-7----------------------|-7-------|-7-----------------------|
E|-0----------------------|-0----------------------|-0-------|-0-----------------------|

E|-------------------------------------|-------------------------------------|-------------------------------------|
B|-------------------------------------|-------------------------------------|-------------------------------------|
G|----------------2----2---------------|----------------2----2---------------|----------------2----2---------------|
D|-2--------------0----0---------2-----|-2--------------0----0---------2-----|-2--------------0----0---------2-----|
A|-0----3----3--------------3----0-----|-0----3----3--------------3----0-----|-0----3----3--------------3----0-----|
E|-------------------------------------|-------------------------------------|-------------------------------------|

E|-------------------------------------|-------------------------------------|-------------------------------------|
B|-------------------------------------|-------------------------------------|-------------------------------------|
G|----------------2----2---------------|----------------2----2---------------|----------------2----2---------------|
D|-2--------------0----0---------2-----|-2--------------0----0---------2-----|-2--------------0----0---------2-----|
A|-0----3----3--------------3----0-----|-0----3----3--------------3----0-----|-0----3----3--------------3----0-----|
E|-------------------------------------|-------------------------------------|-------------------------------------|

E|-------------------------------------|-------------------------------------|-0-------|
B|-------------------------------------|-------------------------------------|-0-------|
G|----------------2----2---------------|----------------2----2---------------|-1-------|
D|-2--------------0----0---------2-----|-2--------------0----0---------2-----|-2-------|
A|-0----3----3--------------3----0-----|-0----3----3--------------3----0-----|-2-------|
E|-------------------------------------|-------------------------------------|-0-------|

E|-0------3----3----2-----0----|-0-------|-0------3----3----2-----0----|-------------------------|
B|-0------3----3----3-----0----|-0-------|-0------3----3----3-----0----|-------------------------|
G|-1------0----0----2-----1----|-1-------|-1------0----0----2-----1----|-9------7----7------7----|
D|-2------0----0----0-----2----|-2-------|-2------0----0----0-----2----|-9------7----7------7----|
A|-2----------------------2----|-2-------|-2----------------------2----|-7------5----5------4----|
E|-0------3----3----2-----0----|-0-------|-0------3----3----2-----0----|-0-----------------------|

E|------------3----3----2----------|-------------------------|------------3----3----2----------|
B|------------3----3----3----------|-------------------------|------------3----3----3----------|
G|-7----------0----0----2----------|-9------7----7------7----|-7----------0----0----2----------|
D|-7----------0----0----0----------|-9------7----7------7----|-7----------0----0----0----------|
A|-4-------------------------------|-7------5----5------4----|-4-------------------------------|
E|-------3----3----3----2-----0----|-0-----------------------|-------3----3----3----2-----0----|

E|-------------------------|------------3----3----2----------|-------------------------|
B|-------------------------|------------3----3----3----------|-------------------------|
G|-9------7----7------7----|-7----------0----0----2----------|-9------7----7------2----|
D|-9------7----7------7----|-7----------0----0----0----------|-9------7----7------2----|
A|-7------5----5------4----|-4-------------------------------|-7------5----5------0----|
E|-0-----------------------|-------3----3----3----2-----0----|-0-----------------------|

E|-----------------------------------------|-----------------------------------------|
B|-----------------------------------------|-----------------------------------------|
G|-2----2----2----2----2----2----2----2----|-2----2----2----2----2----2----2----2----|
D|-2----2----2----2----2----2----2----2----|-2----2----2----2----2----2----2----2----|
A|-0----0----0----0----0----0----0----0----|-0----0----0----0----0----0----0----0----|
E|-----------------------------------------|-----------------------------------------|

E|--------3----3------|-3----2----2----------------|--------3----3------|-3----2----2----------------|
B|--------3----3------|-3----3----3----2----2------|--------3----3------|-3----3----3----2----2------|
G|--------0----0------|-0----2----2----2----2------|--------0----0------|-0----2----2----2----2------|
D|-2------0----0------|-0----0----0----2----2------|-2------0----0------|-0----0----0----2----2------|
A|-2------------------|----------------0----0------|-2------------------|----------------0----0------|
E|-0------3----3------|-3--------------------------|-0------3----3------|-3--------------------------|

E|--------3----3------|-3----2----2----------------|--------3----3------|-3-------|
B|--------3----3------|-3----3----3----2----2------|--------3----3------|-3-------|
G|--------0----0------|-0----2----2----2----2------|--------0----0------|-0-------|
D|-2------0----0------|-0----0----0----2----2------|-2------0----0------|-0-------|
A|-2------------------|----------------0----0------|-2------------------|---------|
E|-0------3----3------|-3--------------------------|-0------3----3------|-3-------|

E|-2------------------|---------|-0-------|-0-------|-0------------------|
B|-3------2----2------|-2-------|-0-------|-0-------|-0------------------|
G|-2------2----2------|-2-------|-1-------|-1-------|-1-----%-----%------|
D|-0------2----2------|-2-------|-2-------|-2-------|-2-----%-----%------|
A|--------0----0------|-0-------|-2-------|-2-------|-2------------------|
E|--------------------|---------|-0-------|-0-------|-0------------------|
ACDC - What Do You Do For Money Honey
ACDC - What Do You Do For Money Honey.gp4