ACDC - Whole Lotta Rosie

AC-DC



Title: Whole Lotta Rosie
Album: 
Artist: 
Author: AC/DC

Track 1: Rhythm Guitar
E|-------------------------------------|---------|-------------------------------------|
B|-------------------------------------|---------|-------------------------------------|
G|-------------------------------------|-%-------|-------------------------------------|
D|-2----5----2----7---------5----2-----|-%-------|-2----5----2----7---------5----2-----|
A|-0----3----0----5----0----3----0-----|---------|-0----3----0----5----0----3----0-----|
E|-------------------------------------|---------|-------------------------------------|

E|---------|-------------------------------------|---------|-------------------------------------|
B|---------|-------------------------------------|---------|-------------------------------------|
G|-%-------|-------------------------------------|-%-------|-------------------------------------|
D|-%-------|-2----5----2----7---------5----2-----|-%-------|-2----5----2----7---------5----2-----|
A|---------|-0----3----0----5----0----3----0-----|---------|-0----3----0----5----0----3----0-----|
E|---------|-------------------------------------|---------|-------------------------------------|

E|---------|-------------------------------------|---------|-------------------------------------|
B|---------|-------------------------------------|---------|-------------------------------------|
G|-%-------|-------------------------------------|-%-------|-------------------------------------|
D|-%-------|-2----5----2----7---------5----2-----|-%-------|-2----5----2----7---------5----2-----|
A|---------|-0----3----0----5----0----3----0-----|---------|-0----3----0----5----0----3----0-----|
E|---------|-------------------------------------|---------|-------------------------------------|

E|---------|-------------------------------------|---------|-------------------------------------|
B|---------|-------------------------------------|---------|-------------------------------------|
G|-%-------|-------------------------------------|-%-------|-------------------------------------|
D|-%-------|-2----5----2----7---------5----2-----|-%-------|-2----5----2----7---------5----2-----|
A|---------|-0----3----0----5----0----3----0-----|---------|-0----3----0----5----0----3----0-----|
E|---------|-------------------------------------|---------|-------------------------------------|

E|---------|-------------------------------------|---------|-------------------------------------|
B|---------|-------------------------------------|---------|-------------------------------------|
G|-%-------|-------------------------------------|-%-------|-------------------------------------|
D|-%-------|-2----5----2----7---------5----2-----|-%-------|-2----5----2----7---------5----2-----|
A|---------|-0----3----0----5----0----3----0-----|---------|-0----3----0----5----0----3----0-----|
E|---------|-------------------------------------|---------|-------------------------------------|

E|---------|-------------------------------------|---------|---------|---------|-----------------------------------------|
B|---------|-------------------------------------|---------|---------|---------|-----------------------------------------|
G|-%-------|-------------------------------------|-%-------|-%-------|-%-------|------------------------------------%----|
D|-%-------|-2----5----2----7---------5----2-----|-%-------|-%-------|-%-------|-2----5----2----7---------5----2----%----|
A|---------|-0----3----0----5----0----3----0-----|---------|---------|---------|-0----3----0----5----0----3----0---------|
E|---------|-------------------------------------|---------|---------|---------|-----------------------------------------|

E|----------------------------------------|-------------------------------------|------------------------------------|
B|----------------------------------------|-------------------------------------|------------------------------------|
G|-%--------%-------------%----2----2-----|-------------------------------------|-----%-------------%----2----2------|
D|-%----2---%---2----2----%----2----2-----|-2----5----2----7---------5----2-----|-2---%---2----2----%----2----2------|
A|------0-------0----0--------------0-----|-0----3----0----5----0----3----0-----|-0-------0----0--------------0------|
E|----------------------------------------|-------------------------------------|------------------------------------|

E|-------------------------------------|------------------------------------|-------------------------------------|
B|-------------------------------------|------------------------------------|-------------------------------------|
G|-------------------------------------|-----%-------------%----2----2------|-------------------------------------|
D|-2----5----2----7---------5----2-----|-2---%---2----2----%----2----2------|-2----5----2----7---------5----2-----|
A|-0----3----0----5----0----3----0-----|-0-------0----0--------------0------|-0----3----0----5----0----3----0-----|
E|-------------------------------------|------------------------------------|-------------------------------------|

E|------------------------------------|-------------------------------------|------------------------------------|
B|------------------------------------|-------------------------------------|------------------------------------|
G|-----%-------------%----2----2------|-------------------------------------|-----%-------------%----2----2------|
D|-2---%---2----2----%----2----2------|-2----5----2----7---------5----2-----|-2---%---2----2----%----2----2------|
A|-0-------0----0--------------0------|-0----3----0----5----0----3----0-----|-0-------0----0--------------0------|
E|------------------------------------|-------------------------------------|------------------------------------|

E|-------------------------------------|------------------------------------|-------------------------------------|
B|-------------------------------------|------------------------------------|-------------------------------------|
G|-------------------------------------|-----%-------------%----2----2------|-------------------------------------|
D|-2----5----2----7---------5----2-----|-2---%---2----2----%----2----2------|-2----5----2----7---------5----2-----|
A|-0----3----0----5----0----3----0-----|-0-------0----0--------------0------|-0----3----0----5----0----3----0-----|
E|-------------------------------------|------------------------------------|-------------------------------------|

E|------------------------------------|-------------------------------------|------------------------------------|
B|------------------------------------|-------------------------------------|------------------------------------|
G|-----%-------------%----2----2------|-------------------------------------|-----%-------------%----2----2------|
D|-2---%---2----2----%----2----2------|-2----5----2----7---------5----2-----|-2---%---2----2----%----2----2------|
A|-0-------0----0--------------0------|-0----3----0----5----0----3----0-----|-0-------0----0--------------0------|
E|------------------------------------|-------------------------------------|------------------------------------|

E|-------------------------------------|------------------------------------|-------------------------------------|
B|-------------------------------------|------------------------------------|-------------------------------------|
G|-------------------------------------|-----%-------------%----2----2------|-------------------------------------|
D|-2----5----2----7---------5----2-----|-2---%---2----2----%----2----2------|-2----5----2----7---------5----2-----|
A|-0----3----0----5----0----3----0-----|-0-------0----0--------------0------|-0----3----0----5----0----3----0-----|
E|-------------------------------------|------------------------------------|-------------------------------------|

E|------------------------------------|-------------------------------------|------------------------------------|
B|------------------------------------|-------------------------------------|------------------------------------|
G|-----%-------------%----2----2------|-------------------------------------|-----%-------------%----2----2------|
D|-2---%---2----2----%----2----2------|-2----5----2----7---------5----2-----|-2---%---2----2----%----2----2------|
A|-0-------0----0--------------0------|-0----3----0----5----0----3----0-----|-0-------0----0--------------0------|
E|------------------------------------|-------------------------------------|------------------------------------|

E|-------------------------------------|------------------------------------|-----------------------------------------|
B|-------------------------------------|------------------------------------|-----------------------------------------|
G|-------------------------------------|-----%-------------%----2----2------|------%----2----2----2----2----2----0----|
D|-2----5----2----7---------5----2-----|-2---%---2----2----%----2----2------|-2----%----2----2----2----2----2----0----|
A|-0----3----0----5----0----3----0-----|-0-------0----0--------------0------|-0--------------0---------0--------------|
E|-------------------------------------|------------------------------------|------------------------------------3----|

E|---------------------|-------------------|---------------------|-------------------|
B|---------------------|--------------3----|-3-----3------3------|-3-------3---------|
G|-0-----0------0------|-0-------0----2----|-2-----2------2------|-2-------2----%----|
D|-0-----0------0------|-0-------0----0----|-0-----0------0------|-0-------0----%----|
A|---------------------|-------------------|---------------------|-------------------|
E|-3-----3------3------|-3-------3---------|---------------------|-------------------|

E|------------------------|-------------------|------------------------|-------------------|
B|------------------------|-------------------|------------------------|-------------------|
G|-%------%---------0-----|-0-------0----2----|-2------2---------0-----|-0-------0----2----|
D|-%------%---------0-----|-0-------0----2----|-2------2---------0-----|-0-------0----2----|
A|------------------------|--------------0----|-0------0---------------|--------------0----|
E|-------------0----3-----|-3-------3---------|-------------0----3-----|-3-------3---------|

E|------------------------|-------------------|---------------------|-------------------------|
B|------------------------|-------------------|---------------------|-------------------------|
G|-2------2---------0-----|-0-------0----0----|-0------------0------|--------0-----------2----|
D|-2------2---------0-----|-0-------0----0----|-0-----4------0------|-4------0-----6-----2----|
A|-0------0---------------|-------------------|-------4-------------|-4------------6-----0----|
E|-------------0----3-----|-3-------3----3----|-3-----2------3------|-2------3-----4----------|

E|------------------------------------|-------------------------------------|------------------------------------|
B|------------------------------------|-------------------------------------|------------------------------------|
G|-----%-------------%----2----2------|-------------------------------2-----|-----%-------------%----2----2------|
D|-2---%---2----2----%----2----2------|-2----5----2----7---------2----2-----|-2---%---2----2----%----2----2------|
A|-0-------0----0--------------0------|-0----3----0----5----0----3----0-----|-0-------0----0--------------0------|
E|------------------------------------|-------------------------------------|------------------------------------|

E|-------------------------------------|------------------------------------|-------------------------------------|
B|-------------------------------------|------------------------------------|-------------------------------------|
G|-------------------------------2-----|-----%-------------%----2----2------|-------------------------------2-----|
D|-2----5----2----7---------2----2-----|-2---%---2----2----%----2----2------|-2----5----2----7---------2----2-----|
A|-0----3----0----5----0----3----0-----|-0-------0----0--------------0------|-0----3----0----5----0----3----0-----|
E|-------------------------------------|------------------------------------|-------------------------------------|

E|------------------------------------|-------------------------------------|------------------------------------|
B|------------------------------------|-------------------------------------|------------------------------------|
G|-----%-------------%----2----2------|-------------------------------2-----|-----%-------------%----2----2------|
D|-2---%---2----2----%----2----2------|-2----5----2----7---------2----2-----|-2---%---2----2----%----2----2------|
A|-0-------0----0--------------0------|-0----3----0----5----0----3----0-----|-0-------0----0--------------0------|
E|------------------------------------|-------------------------------------|------------------------------------|

E|-------------------------------------|------------------------------------|-------------------------------------|
B|-------------------------------------|------------------------------------|-------------------------------------|
G|-------------------------------2-----|-----%-------------%----2----2------|-------------------------------2-----|
D|-2----5----2----7---------2----2-----|-2---%---2----2----%----2----2------|-2----5----2----7---------2----2-----|
A|-0----3----0----5----0----3----0-----|-0-------0----0--------------0------|-0----3----0----5----0----3----0-----|
E|-------------------------------------|------------------------------------|-------------------------------------|

E|------------------------------------|-------------------------------------|------------------------------------|
B|------------------------------------|-------------------------------------|------------------------------------|
G|-----%-------------%----2----2------|-------------------------------2-----|-----%-------------%----2----2------|
D|-2---%---2----2----%----2----2------|-2----5----2----7---------2----2-----|-2---%---2----2----%----2----2------|
A|-0-------0----0--------------0------|-0----3----0----5----0----3----0-----|-0-------0----0--------------0------|
E|------------------------------------|-------------------------------------|------------------------------------|

E|-------------------------------------|------------------------------------|-------------------------------------|
B|-------------------------------------|------------------------------------|-------------------------------------|
G|-------------------------------2-----|-----%-------------%----2----2------|-------------------------------2-----|
D|-2----5----2----7---------2----2-----|-2---%---2----2----%----2----2------|-2----5----2----7---------2----2-----|
A|-0----3----0----5----0----3----0-----|-0-------0----0--------------0------|-0----3----0----5----0----3----0-----|
E|-------------------------------------|------------------------------------|-------------------------------------|

E|------------------------------------|-----------------------------------------|---------------------|
B|------------------------------------|-----------------------------------------|---------------------|
G|-----%-------------%----2----2------|------%----2----2----2----2----2----0----|-0-----0------0------|
D|-2---%---2----2----%----2----2------|-2----%----2----2----2----2----2----0----|-0-----0------0------|
A|-0-------0----0--------------0------|-0--------------0---------0--------------|---------------------|
E|------------------------------------|------------------------------------3----|-3-----3------3------|

E|-------------------|---------------------|-------------------|------------------------|
B|--------------3----|-3-----3------3------|-3-------3---------|------------------------|
G|-0-------0----2----|-2-----2------2------|-2-------2----%----|-%------%---------0-----|
D|-0-------0----0----|-0-----0------0------|-0-------0----%----|-%------%---------0-----|
A|-------------------|---------------------|-------------------|------------------------|
E|-3-------3---------|---------------------|-------------------|-------------0----3-----|

E|-------------------|------------------------|-------------------|------------------------|
B|-------------------|------------------------|-------------------|------------------------|
G|-0-------0----2----|-2------2---------0-----|-0-------0----2----|-2------2---------0-----|
D|-0-------0----2----|-2------2---------0-----|-0-------0----2----|-2------2---------0-----|
A|--------------0----|-0------0---------------|--------------0----|-0------0---------------|
E|-3-------3---------|-------------0----3-----|-3-------3---------|-------------0----3-----|

E|-------------------|---------------------|-------------------------|------------------------------------|
B|-------------------|---------------------|-------------------------|------------------------------------|
G|-0-------0----0----|-0------------0------|--------0-----------2----|-----%-------------%----2----2------|
D|-0-------0----0----|-0-----4------0------|-4------0-----6-----2----|-2---%---2----2----%----2----2------|
A|-------------------|-------4-------------|-4------------6-----0----|-0-------0----0--------------0------|
E|-3-------3----3----|-3-----2------3------|-2------3-----4----------|------------------------------------|

E|-------------------------------------|------------------------------------|-------------------------------------|
B|-------------------------------------|------------------------------------|-------------------------------------|
G|-------------------------------2-----|-----%-------------%----2----2------|-------------------------------2-----|
D|-2----5----2----7---------2----2-----|-2---%---2----2----%----2----2------|-2----5----2----7---------2----2-----|
A|-0----3----0----5----0----3----0-----|-0-------0----0--------------0------|-0----3----0----5----0----3----0-----|
E|-------------------------------------|------------------------------------|-------------------------------------|

E|------------------------------------|-------------------------------------|------------------------------------|
B|------------------------------------|-------------------------------------|------------------------------------|
G|-----%-------------%----2----2------|-------------------------------2-----|-----%-------------%----2----2------|
D|-2---%---2----2----%----2----2------|-2----5----2----7---------2----2-----|-2---%---2----2----%----2----2------|
A|-0-------0----0--------------0------|-0----3----0----5----0----3----0-----|-0-------0----0--------------0------|
E|------------------------------------|-------------------------------------|------------------------------------|

E|-------------------------------------|------------------------------------|-------------------------------------|
B|-------------------------------------|------------------------------------|-------------------------------------|
G|-------------------------------2-----|-----%-------------%----2----2------|-------------------------------2-----|
D|-2----5----2----7---------2----2-----|-2---%---2----2----%----2----2------|-2----5----2----7---------2----2-----|
A|-0----3----0----5----0----3----0-----|-0-------0----0--------------0------|-0----3----0----5----0----3----0-----|
E|-------------------------------------|------------------------------------|-------------------------------------|

E|------------------------------------|-------------------------------------|------------------------------------|
B|------------------------------------|-------------------------------------|------------------------------------|
G|-----%-------------%----2----2------|-------------------------------2-----|-----%-------------%----2----2------|
D|-2---%---2----2----%----2----2------|-2----5----2----7---------2----2-----|-2---%---2----2----%----2----2------|
A|-0-------0----0--------------0------|-0----3----0----5----0----3----0-----|-0-------0----0--------------0------|
E|------------------------------------|-------------------------------------|------------------------------------|

E|-------------------------------------|------------------------------------|-------------------------------------|
B|-------------------------------------|------------------------------------|-------------------------------------|
G|-------------------------------2-----|-----%-------------%----2----2------|-------------------------------2-----|
D|-2----5----2----7---------2----2-----|-2---%---2----2----%----2----2------|-2----5----2----7---------2----2-----|
A|-0----3----0----5----0----3----0-----|-0-------0----0--------------0------|-0----3----0----5----0----3----0-----|
E|-------------------------------------|------------------------------------|-------------------------------------|

E|------------------------------------|-------------------|---------------------|-------------------|
B|------------------------------------|--------------3----|-3-----3------3------|-3-------3---------|
G|-----%-------------%----2----2------|-2-------2----2----|-2-----2------2------|-2-------2---------|
D|-2---%---2----2----%----2----2------|-2-------2----0----|-0-----0------0------|-0-------0----2----|
A|-0-------0----0--------------0------|-0-------0---------|---------------------|--------------0----|
E|------------------------------------|-------------------|---------------------|-------------------|

E|---------|-----------------------------------------|---------|-----------------------------------------|
B|---------|-----------------------------------------|---------|-----------------------------------------|
G|-%-------|-%---------------------------------------|-%-------|-%---------------------------------------|
D|-%-------|-%----2----2---------7---------2----2----|-%-------|-%----2----2---------7---------2----2----|
A|---------|------0----3----0----5----0----3----0----|---------|------0----3----0----5----0----3----0----|
E|---------|-----------------------------------------|---------|-----------------------------------------|

E|---------|-----------------------------------------|---------|-----------------------------------------|
B|---------|-----------------------------------------|---------|-----------------------------------------|
G|-%-------|-%---------------------------------------|-%-------|-%---------------------------------------|
D|-%-------|-%----2----2---------7---------2----2----|-%-------|-%----2----2---------7---------2----2----|
A|---------|------0----3----0----5----0----3----0----|---------|------0----3----0----5----0----3----0----|
E|---------|-----------------------------------------|---------|-----------------------------------------|

E|---------|-----------------------------------------|---------|---------|---------|
B|---------|-----------------------------------------|---------|---------|---------|
G|-%-------|-%---------------------------------------|-%-------|-%-------|-%-------|
D|-%-------|-%----2----2---------7---------2----2----|-%-------|-%-------|-%-------|
A|---------|------0----3----0----5----0----3----0----|---------|---------|---------|
E|---------|-----------------------------------------|---------|---------|---------|

E|---------|---------|------------------------------------|-------------------------------------|
B|---------|---------|------------------------------------|-------------------------------------|
G|-%-------|-%-------|-----%-------------%----2----2------|-------------------------------2-----|
D|-%-------|-%-------|-2---%---2----2----%----2----2------|-2----5----2----7---------2----2-----|
A|---------|---------|-0-------0----0--------------0------|-0----3----0----5----0----3----0-----|
E|---------|---------|------------------------------------|-------------------------------------|

E|------------------------------------|------------------------------------|-------------------------------------|
B|------------------------------------|------------------------------------|-------------------------------------|
G|-----%-------------%----2----2------|-----%-------------%----2----2------|-------------------------------2-----|
D|-2---%---2----2----%----2----2------|-2---%---2----2----%----2----2------|-2----5----2----7---------2----2-----|
A|-0-------0----0--------------0------|-0-------0----0--------------0------|-0----3----0----5----0----3----0-----|
E|------------------------------------|------------------------------------|-------------------------------------|

E|------------------------------------|-------------------------------------|------------------------------------|
B|------------------------------------|-------------------------------------|------------------------------------|
G|-----%-------------%-----2----2-----|------%---------2--------------2-----|-----%-------------%----2----2------|
D|-2---%---2----2----%-----2----2-----|-2----%----2----0---------2----2-----|-2---%---2----2----%----2----2------|
A|-0-------0----0---------------0-----|-0---------0---------0----3----0-----|-0-------0----0--------------0------|
E|------------------------------------|-------------------------------------|------------------------------------|

E|-------------------------------------|------------------------------------|-------------------------------------|
B|-------------------------------------|------------------------------------|-------------------------------------|
G|-------------------------------2-----|-----%-------------%----2----2------|-------------------------------2-----|
D|-2----5----2----7---------2----2-----|-2---%---2----2----%----2----2------|-2----5----2----7---------2----2-----|
A|-0----3----0----5----0----3----0-----|-0-------0----0--------------0------|-0----3----0----5----0----3----0-----|
E|-------------------------------------|------------------------------------|-------------------------------------|

E|------------------------------------|-------------------------------------|------------------------------------|
B|------------------------------------|-------------------------------------|------------------------------------|
G|-----%-------------%----2----2------|-------------------------------2-----|-----%-------------%----2----2------|
D|-2---%---2----2----%----2----2------|-2----5----2----7---------2----2-----|-2---%---2----2----%----2----2------|
A|-0-------0----0--------------0------|-0----3----0----5----0----3----0-----|-0-------0----0--------------0------|
E|------------------------------------|-------------------------------------|------------------------------------|

E|-------------------------------------|---------------------|-------------------|---------------------|
B|-------------------------------------|---------------------|--------------3----|-3-----3------3------|
G|-------------------------------2-----|-2-----0------0------|-0-------0----2----|-2-----2------2------|
D|-2----5----2----7---------2----2-----|-2-----0------0------|-0-------0----0----|-0-----0------0------|
A|-0----3----0----5----0----3----0-----|-0-------------------|-------------------|---------------------|
E|-------------------------------------|-------3------3------|-3-------3---------|---------------------|

E|-------------------|------------------------|-------------------|------------------------|
B|-3-------3---------|------------------------|-------------------|------------------------|
G|-2-------2----%----|-%------%---------0-----|-0-------0----2----|-2------2---------0-----|
D|-0-------0----%----|-%------%---------0-----|-0-------0----2----|-2------2---------0-----|
A|-------------------|------------------------|--------------0----|-0------0---------------|
E|-------------------|-------------0----3-----|-3-------3---------|-------------0----3-----|

E|-------------------|------------------------|-------------------|---------------------|
B|-------------------|------------------------|-------------------|---------------------|
G|-0-------0----2----|-2------2---------0-----|-0-------0----0----|-0------------0------|
D|-0-------0----2----|-2------2---------0-----|-0-------0----0----|-0-----4------0------|
A|--------------0----|-0------0---------------|-------------------|-------4-------------|
E|-3-------3---------|-------------0----3-----|-3-------3----3----|-3-----2------3------|

E|-------------------------|--------------------------------------------------------------|
B|-------------------------|--------------------------------------------------------------|
G|--------0-----------2----|-2----2---2---2---2---2---2---2---2---2---2---2---2---2---2---|
D|-4------0-----6-----2----|-2----2---2---2---2---2---2---2---2---2---2---2---2---2---2---|
A|-4------------6-----0----|-0----0-------------------------------------------------------|
E|-2------3-----4----------|--------------------------------------------------------------|

E|-----------------------------------------------------------------|-----------------------------------------------------------------|
B|-----------------------------------------------------------------|-----------------------------------------------------------------|
G|-2---2---2---2---2---2---2---2---2---2---2---2---2---2---2---2---|-2---2---2---2---2---2---2---2---2---2---2---2---2---2---2---2---|
D|-2---2---2---2---2---2---2---2---2---2---2---2---2---2---2---2---|-2---2---2---2---2---2---2---2---2---2---2---2---2---2---2---2---|
A|-----------------------------------------------------------------|-----------------------------------------------------------------|
E|-----------------------------------------------------------------|-----------------------------------------------------------------|

E|---------0-------0----|-0-------|-0----------------------|---------|---------|
B|---------2-------2----|-2-------|-2----------------------|---------|---------|
G|-2---2---2-------2----|-2-------|-2----%------%-----%----|-%-------|-%-------|
D|-2---2---2-------2----|-2-------|-2----%------%-----%----|-%-------|-%-------|
A|---------0-------0----|-0-------|-0----------------------|---------|---------|
E|----------------------|---------|------------------------|---------|---------|
ACDC - Whole Lotta Rosie
ACDC - Whole Lotta Rosie.gp3