arpeggio fingerstyle speed practice

arpeggio fingerstyle speed practice

Lessons



Title: Arpeggio Fingerstyle Speed Practice
Album: 
Artist: blackiel
Author: Music by Peter Lynch

Track 1: Guitar
E|---------|-------------------------------------------------------------|-------------------------------------------------------------|
B|---------|-------------------------------------------------------------|-------------------------------------------------------------|
G|-%-------|----------------6-----------------------------6--------------|----------------6-----------------------------6--------------|
D|-%-------|-----------7---------7-------------------7---------7---------|-----------7---------7-------------------7---------7---------|
A|---------|------7-------------------7---------7-------------------7----|------7-------------------7---------7-------------------7----|
E|---------|-5-----------------------------5-----------------------------|-5-----------------------------5-----------------------------|

E|-------------------------------------------------------------|-------------------------------------------------------------|
B|-------------------------------------------------------------|-------------------------------------------------------------|
G|----------------5-----------------------------5--------------|----------------5-----------------------------5--------------|
D|-----------7---------7-------------------7---------7---------|-----------7---------7-------------------7---------7---------|
A|------7-------------------7---------7-------------------7----|------7-------------------7---------7-------------------7----|
E|-5-----------------------------5-----------------------------|-5-----------------------------5-----------------------------|

E|-------------------------------------------------------------|-------------------------------------------------------------|
B|-------------------------------------------------------------|-------------------------------------------------------------|
G|----------------6-----------------------------6--------------|----------------4-----------------------------4--------------|
D|-----------7---------7-------------------7---------7---------|-----------5---------5-------------------5---------5---------|
A|------7-------------------7---------7-------------------7----|------5-------------------5---------5-------------------5----|
E|-5-----------------------------5-----------------------------|-3-----------------------------3-----------------------------|

E|-------------------------------------------------------------|-------------------------------------------------------------|
B|-------------------------------------------------------------|-------------------------------------------------------------|
G|----------------2-----------------------------4--------------|----------------6-----------------------------6--------------|
D|-----------3---------3-------------------5---------5---------|-----------7---------7-------------------7---------7---------|
A|------3-------------------3---------5-------------------5----|------7-------------------7---------7-------------------7----|
E|-1-----------------------------3-----------------------------|-5-----------------------------5-----------------------------|

E|-------------------------------------------------------------|-------------------------------------------------------------|
B|-------------------------------------------------------------|-------------------------------------------------------------|
G|----------------6-----------------------------6--------------|----------------4-----------------------------4--------------|
D|-----------7---------7-------------------7---------7---------|-----------5---------5-------------------5---------5---------|
A|------7-------------------7---------7-------------------7----|------5-------------------5---------5-------------------5----|
E|-5-----------------------------5-----------------------------|-3-----------------------------3-----------------------------|

E|-------------------------------------------------------------|-------------------------------------------------------------|
B|-------------------------------------------------------------|-------------------------------------------------------------|
G|----------------2-----------------------------4--------------|----------------6-----------------------------6--------------|
D|-----------3---------3-------------------5---------5---------|-----------7---------7-------------------7---------7---------|
A|------3-------------------3---------5-------------------5----|------7-------------------7---------7-------------------7----|
E|-1-----------------------------3-----------------------------|-5-----------------------------5-----------------------------|

E|-------------------------------------------------------------|-------------------------------------------------------------|
B|-------------------------------------------------------------|-------------------------------------------------------------|
G|----------------9-----------------------------9--------------|----------------8-----------------------------8--------------|
D|-----------10--------10------------------10--------10--------|-----------10--------10------------------10--------10--------|
A|------10------------------10--------10------------------10---|------10------------------10--------10------------------10---|
E|-8-----------------------------8-----------------------------|-8-----------------------------8-----------------------------|

E|-------------------------------------------------------------|-------------------------------------------------------------|
B|-------------------------------------------------------------|-------------------------------------------------------------|
G|-------------------------------------------------------------|-------------------------------------------------------------|
D|-----------3--------------5--------------7--------------7----|-----------3--------------5--------------7--------------7----|
A|------3--------------5--------------7--------------7---------|------3--------------5--------------7--------------7---------|
E|-1--------------3--------------5--------------5--------------|-1--------------3--------------5--------------5--------------|

E|-------------------------------------------------------------|-------------------------------------------------------------|
B|-------------------------------------------------------------|-------------------------------------------------------------|
G|----------------6-----------------------------6--------------|----------------6-----------------------------6--------------|
D|-----------7---------7-------------------7---------7---------|-----------7---------7-------------------7---------7---------|
A|------7-------------------7---------7-------------------7----|------7-------------------7---------7-------------------7----|
E|-5-----------------------------5-----------------------------|-5-----------------------------5-----------------------------|

E|-------------------------------------------------------------|-------------------------------------------------------------|
B|-------------------------------------------------------------|-------------------------------------------------------------|
G|----------------5-----------------------------5--------------|----------------5-----------------------------5--------------|
D|-----------7---------7-------------------7---------7---------|-----------7---------7-------------------7---------7---------|
A|------7-------------------7---------7-------------------7----|------7-------------------7---------7-------------------7----|
E|-5-----------------------------5-----------------------------|-5-----------------------------5-----------------------------|

E|----------------2-----------------------------2--------------|-------------------------------------------------------------|
B|-----------3---------3-------------------3---------3---------|----------------1-----------------------------1--------------|
G|------2-------------------2---------2-------------------2----|-----------0---------0-------------------0---------0---------|
D|-0-----------------------------0-----------------------------|------2-------------------2---------2-------------------2----|
A|-------------------------------------------------------------|-3-----------------------------3-----------------------------|
E|-------------------------------------------------------------|-------------------------------------------------------------|

E|-------------------------------------------------------------|-------------------------------------------------------------|
B|-------------------------------------------------------------|----------------------------------------------1--------------|
G|----------------0-----------------------------0--------------|----------------0------------------------0---------0---------|
D|-----------0---------0-------------------0---------0---------|-----------0---------0--------------2-------------------2----|
A|------2-------------------2---------2-------------------2----|------2-------------------2----3-----------------------------|
E|-3-----------------------------3-----------------------------|-3-----------------------------------------------------------|

E|----------------2-----------------------------2--------------|-------------------------------------------------------------|
B|-----------3---------3-------------------3---------3---------|----------------1-----------------------------1--------------|
G|------2-------------------2---------2-------------------2----|-----------0---------0-------------------0---------0---------|
D|-0-----------------------------0-----------------------------|------2-------------------2---------2-------------------2----|
A|-------------------------------------------------------------|-3-----------------------------3-----------------------------|
E|-------------------------------------------------------------|-------------------------------------------------------------|

E|-------------------------------------------------------------|-------------------------------------------------------------|
B|-------------------------------------------------------------|----------------------------------------------1--------------|
G|----------------0-----------------------------0--------------|----------------0------------------------0---------0---------|
D|-----------0---------0-------------------0---------0---------|-----------0---------0--------------2-------------------2----|
A|------2-------------------2---------2-------------------2----|------2-------------------2----3-----------------------------|
E|-3-----------------------------3-----------------------------|-3-----------------------------------------------------------|

E|----------------2-----------------------------2--------------|-------------------------------------------------------------|
B|-----------3---------3-------------------3---------3---------|----------------1-----------------------------1--------------|
G|------2-------------------2---------2-------------------2----|-----------0---------0-------------------0---------0---------|
D|-0-----------------------------0-----------------------------|------2-------------------2---------2-------------------2----|
A|-------------------------------------------------------------|-3-----------------------------3-----------------------------|
E|-------------------------------------------------------------|-------------------------------------------------------------|

E|-------------------------------------------------------------|-------------------------------------------------------------|
B|-------------------------------------------------------------|----------------------------------------------1--------------|
G|----------------0-----------------------------0--------------|----------------0------------------------0---------0---------|
D|-----------0---------0-------------------0---------0---------|-----------0---------0--------------2-------------------2----|
A|------2-------------------2---------2-------------------2----|------2-------------------2----3-----------------------------|
E|-3-----------------------------3-----------------------------|-3-----------------------------------------------------------|

E|----------------2-----------------------------2--------------|-------------------------------------------------------------|
B|-----------3---------3-------------------3---------3---------|----------------1-----------------------------1--------------|
G|------2-------------------2---------2-------------------2----|-----------0---------0-------------------0---------0---------|
D|-0-----------------------------0-----------------------------|------2-------------------2---------2-------------------2----|
A|-------------------------------------------------------------|-3-----------------------------3-----------------------------|
E|-------------------------------------------------------------|-------------------------------------------------------------|

E|-------------------------------------------------------------|-------------------------------------------------------------|
B|-------------------------------------------------------------|----------------------------------------------1--------------|
G|----------------0-----------------------------0--------------|----------------0------------------------0---------0---------|
D|-----------0---------0-------------------0---------0---------|-----------0---------0--------------2-------------------2----|
A|------2-------------------2---------2-------------------2----|------2-------------------2----3-----------------------------|
E|-3-----------------------------3-----------------------------|-3-----------------------------------------------------------|

E|----------------2-----------------------------2--------------|-------------------------------------------------------------|
B|-----------3---------3-------------------3---------3---------|----------------1-----------------------------1--------------|
G|------2-------------------2---------2-------------------2----|-----------0---------0-------------------0---------0---------|
D|-0-----------------------------0-----------------------------|------2-------------------2---------2-------------------2----|
A|-------------------------------------------------------------|-3-----------------------------3-----------------------------|
E|-------------------------------------------------------------|-------------------------------------------------------------|

E|-------------------------------------------------------------|-------------------------------------------------------------|
B|-------------------------------------------------------------|----------------------------------------------1--------------|
G|----------------0-----------------------------0--------------|----------------0------------------------0---------0---------|
D|-----------0---------0-------------------0---------0---------|-----------0---------0--------------2-------------------2----|
A|------2-------------------2---------2-------------------2----|------2-------------------2----3-----------------------------|
E|-3-----------------------------3-----------------------------|-3-----------------------------------------------------------|

E|-2-------|
B|-3-------|
G|-2-------|
D|-0-------|
A|---------|
E|---------|
arpeggio fingerstyle speed practice
arpeggio_fingerstyle_speed_practice.gp4