arpeggios based dm

arpeggios based dm

Lessons



Title: Arpeggios(fast Playing exercise)
Album: 
Artist: 
Author: 

Track 1: guitar
E|---------------------5---8---5-----------------------------------|-----10--13--10--------------------------------------12--15--12--|
B|-----------------6---------------6-------------------------------|-11--------------11------------------------------13--------------|
G|-------------7-----------------------7-----------------------12--|---------------------12----------------------14------------------|
D|---------7-------------------------------7---------------12------|-------------------------12--------------14----------------------|
A|-5---8---------------------------------------8---10--13----------|-----------------------------13--12--15--------------------------|
E|-----------------------------------------------------------------|-----------------------------------------------------------------|

E|-------------------------------------5---8---5-------------------|---------|
B|-13------------------------------6---------------6---------------|---------|
G|-----14----------------------7-----------------------7-----------|---------|
D|---------14--------------7-------------------------------7-------|---------|
A|-------------15--5---8---------------------------------------8---|-5-------|
E|-----------------------------------------------------------------|---------|
arpeggios based dm
arpeggios_based_dm.gp3