Black Sabbath - A National Acrobat (2)

Black Sabbath



Title: A National Acrobat
Album: 
Artist: Black Sabbath
Author: Black Sabbath

Track 1: Guitarra
D#|------------------------|-------------------------------------|-------------------------------------|
A#|------------------------|-------------------------------------|-------------------------------------|
F#|------------------------|-------------------------------------|-------------------------------------|
C#|------------------------|---------------------3----2----------|----------------------7----5---------|
G#|-3----5----5-----5------|-3----5----3----5---------------3----|-5----5----5----5---------------3----|
D#|------------------------|-------------------------------------|-------------------------------------|

D#|-----------------------------------------|------------------------|-------------------------------------|
A#|-----------------------------------------|------------------------|-------------------------------------|
F#|-----------------------------------------|------------------------|-------------------------------------|
C#|-----------5----3----5----3----5----3----|------------------------|---------------------3----2----------|
G#|-0----3----------------------------------|-3----5----5-----5------|-3----5----3----5---------------3----|
D#|-----------------------------------------|------------------------|-------------------------------------|

D#|-------------------------------------|-----------------------------------------|
A#|-------------------------------------|-----------------------------------------|
F#|-------------------------------------|-----------------------------------------|
C#|----------------------7----5---------|-----------5----3----5----3----5----3----|
G#|-5----5----5----5---------------3----|-0----3----------------------------------|
D#|-------------------------------------|-----------------------------------------|

D#|---------------|---------------|---------------|---------------|------------------------|
A#|---------------|---------------|---------------|---------------|------------------------|
F#|---------------|---------------|---------------|---------------|------------------------|
C#|-7------7------|-10-----10-----|-5------5------|-12-----12-----|------------------------|
G#|-5------5------|-8------8------|-3------3------|-10-----10-----|-3----5----5-----5------|
D#|---------------|---------------|---------------|---------------|------------------------|

D#|-------------------------------------|-------------------------------------|-----------------------------------------|
A#|-------------------------------------|-------------------------------------|-----------------------------------------|
F#|-------------------------------------|-------------------------------------|-----------------------------------------|
C#|---------------------3----2----------|----------------------7----5---------|-----------5----3----5----3----5----3----|
G#|-3----5----3----5---------------3----|-5----5----5----5---------------3----|-0----3----------------------------------|
D#|-------------------------------------|-------------------------------------|-----------------------------------------|

D#|---------------|---------------|---------------|---------------|------------------------|
A#|---------------|---------------|---------------|---------------|------------------------|
F#|---------------|---------------|---------------|---------------|------------------------|
C#|-7------7------|-10-----10-----|-5------5------|-12-----12-----|------------------------|
G#|-5------5------|-8------8------|-3------3------|-10-----10-----|-3----5----5-----5------|
D#|---------------|---------------|---------------|---------------|------------------------|

D#|-------------------------------------|-------------------------------------|-----------------------------------------|
A#|-------------------------------------|-------------------------------------|-----------------------------------------|
F#|-------------------------------------|-------------------------------------|-----------------------------------------|
C#|---------------------3----2----------|----------------------7----5---------|-----------5----3----5----3----5----3----|
G#|-3----5----3----5---------------3----|-5----5----5----5---------------3----|-0----3----------------------------------|
D#|-------------------------------------|-------------------------------------|-----------------------------------------|

D#|---------------|---------------|---------------|---------------|------------------------|
A#|---------------|---------------|---------------|---------------|------------------------|
F#|---------------|---------------|---------------|---------------|------------------------|
C#|-3------3------|-2------2------|---------------|---------------|------------------------|
G#|-1------1------|-0------0------|-3------3------|-5------5------|-3----5----5-----5------|
D#|---------------|---------------|-1------1------|-3------3------|------------------------|

D#|-------------------------------------|-------------------------------------|-----------------------------------------|
A#|-------------------------------------|-------------------------------------|-----------------------------------------|
F#|-------------------------------------|-------------------------------------|-----------------------------------------|
C#|---------------------3----2----------|----------------------7----5---------|-----------5----3----5----3----5----3----|
G#|-3----5----3----5---------------3----|-5----5----5----5---------------3----|-0----3----------------------------------|
D#|-------------------------------------|-------------------------------------|-----------------------------------------|

D#|---------------|---------------|---------------|---------------|------------------------|
A#|---------------|---------------|---------------|---------------|------------------------|
F#|---------------|---------------|---------------|---------------|------------------------|
C#|-3------3------|-2------2------|---------------|---------------|------------------------|
G#|-1------1------|-0------0------|-3------3------|-5------5------|-3----5----5-----5------|
D#|---------------|---------------|-1------1------|-3------3------|------------------------|

D#|-------------------------------------|-------------------------------------|-----------------------------------------|
A#|-------------------------------------|-------------------------------------|-----------------------------------------|
F#|-------------------------------------|-------------------------------------|-----------------------------------------|
C#|---------------------3----2----------|----------------------7----5---------|-----------5----3----5----3----5----3----|
G#|-3----5----3----5---------------3----|-5----5----5----5---------------3----|-0----3----------------------------------|
D#|-------------------------------------|-------------------------------------|-----------------------------------------|

D#|------------------------|-------------------------------------|-------------------------------------|
A#|------------------------|-------------------------------------|-------------------------------------|
F#|------------------------|-------------------------------------|-------------------------------------|
C#|------------------------|---------------------3----2----------|----------------------7----5---------|
G#|-3----5----5-----5------|-3----5----3----5---------------3----|-5----5----5----5---------------3----|
D#|------------------------|-------------------------------------|-------------------------------------|

D#|-----------------------------------------|---------------|---------------|---------------|
A#|-----------------------------------------|---------------|---------------|---------------|
F#|-----------------------------------------|---------------|---------------|---------------|
C#|-----------5----3----5----3----5----3----|-7------7------|-10-----10-----|-5------5------|
G#|-0----3----------------------------------|-5------5------|-8------8------|-3------3------|
D#|-----------------------------------------|---------------|---------------|---------------|

D#|---------------|------------------------|-------------------------------------|-------------------------------------|
A#|---------------|------------------------|-------------------------------------|-------------------------------------|
F#|---------------|------------------------|-------------------------------------|-------------------------------------|
C#|-12-----12-----|------------------------|---------------------3----2----------|----------------------7----5---------|
G#|-10-----10-----|-3----5----5-----5------|-3----5----3----5---------------3----|-5----5----5----5---------------3----|
D#|---------------|------------------------|-------------------------------------|-------------------------------------|

D#|-----------------------------------------|---------------|---------------|---------------|
A#|-----------------------------------------|---------------|---------------|---------------|
F#|-----------------------------------------|---------------|---------------|---------------|
C#|-----------5----3----5----3----5----3----|-7------7------|-10-----10-----|-5------5------|
G#|-0----3----------------------------------|-5------5------|-8------8------|-3------3------|
D#|-----------------------------------------|---------------|---------------|---------------|

D#|---------------|------------------------|-------------------------------------|-------------------------------------|
A#|---------------|------------------------|-------------------------------------|-------------------------------------|
F#|---------------|------------------------|-------------------------------------|-------------------------------------|
C#|-12-----12-----|------------------------|---------------------3----2----------|----------------------7----5---------|
G#|-10-----10-----|-3----5----5-----5------|-3----5----3----5---------------3----|-5----5----5----5---------------3----|
D#|---------------|------------------------|-------------------------------------|-------------------------------------|

D#|-----------------------------------------|---------------|---------------|---------------|
A#|-----------------------------------------|---------------|---------------|---------------|
F#|-----------------------------------------|---------------|---------------|---------------|
C#|-----------5----3----5----3----5----3----|-3------3------|-2------2------|---------------|
G#|-0----3----------------------------------|-1------1------|-0------0------|-3------3------|
D#|-----------------------------------------|---------------|---------------|-1------1------|

D#|---------------|------------------------|-------------------------------------|-------------------------------------|
A#|---------------|------------------------|-------------------------------------|-------------------------------------|
F#|---------------|------------------------|-------------------------------------|-------------------------------------|
C#|---------------|------------------------|---------------------3----2----------|----------------------7----5---------|
G#|-5------5------|-3----5----5-----5------|-3----5----3----5---------------3----|-5----5----5----5---------------3----|
D#|-3------3------|------------------------|-------------------------------------|-------------------------------------|

D#|-----------------------------------------|---------------|---------------|---------------|
A#|-----------------------------------------|---------------|---------------|---------------|
F#|-----------------------------------------|---------------|---------------|---------------|
C#|-----------5----3----5----3----5----3----|-3------3------|-2------2------|---------------|
G#|-0----3----------------------------------|-1------1------|-0------0------|-3------3------|
D#|-----------------------------------------|---------------|---------------|-1------1------|

D#|---------------|-----------------------------------------|-----------------------------------------|
A#|---------------|-----------------------------------------|-----------------------------------------|
F#|---------------|-----------%----%----%----%----%----%----|-----------------------------------------|
C#|---------------|-----------%----%----%----%----%----%----|---------------------3----2----0---------|
G#|-5------5------|-3----5----------------------------------|-3----5----3----5-------------------0----|
D#|-3------3------|-----------------------------------------|-----------------------------------------|

D#|---------------------------------|-------------------------------------|---------------------------------------------------------15-12----------|
A#|---------------------8-----------|---------------------12--------------|-----15-12---------15-12---------15-12---------15-12-----------15-------|
F#|-----------%---------7-----%-----|---------------------12----%----%----|-%---------12--%---------14--%---------14--%---------14------------%----|
C#|-----------%---------6-----%-----|---------------------12----%----%----|-%-------------%-------------%-------------%-----------------------%----|
G#|-3----5--------------7-----------|-------------------------------------|------------------------------------------------------------------------|
D#|----------------0----------------|-0----0----0----0--------------------|------------------------------------------------------------------------|

D#|---------------------------------------------------------------|-15--------15---18--15--12------12---12----------------|
A#|-----15-12-----15-12-------------------------------------------|----------------------------15-----------15------------|
F#|-%---------12--------14--14--14-12-----14--14--15-14-12--12----|------%--------------------------------------15-14-12--|
C#|-%---------------------------------14--------------------------|------%------------------------------------------------|
G#|---------------------------------------------------------------|-------------------------------------------------------|
D#|---------------------------------------------------------------|-------------------------------------------------------|

D#|---------------------------------------------|--------------------------------------------------|
A#|---------------------------------------------|-17--20---20---20---20--20--17--15--17--15--17----|
F#|-16-14---12--14--14-12-----------------%-----|--------------------------------------------------|
C#|-------------------------14--14--14----%-----|--------------------------------------------------|
G#|---------------------------------------------|--------------------------------------------------|
D#|---------------------------------------------|--------------------------------------------------|

D#|---------------------------------------------------------------|------17--17--17--15--12------15-12---------------------------------|
A#|-17---5--------15--15--12--------------------------------------|------------------------------------15--15-12-----15-12-------------|
F#|-----------%---------------15--14--12--14--12--15--14--12--%---|-%------------------------%-------------------14--------14--16--14--|
C#|-----------%-----------------------------------------------%---|-%------------------------%-----------------------------------------|
G#|---------------------------------------------------------------|--------------------------------------------------------------------|
D#|---------------------------------------------------------------|--------------------------------------------------------------------|

D#|---------------------------------------------|-----------------------------------------|
A#|---------------------------------------------|-----------------------------------------|
F#|-12--14--16--14--12--------------------%-----|-----------%----%----%----%----%----%----|
C#|---------------------14--12--14--14----%-----|-----------%----%----%----%----%----%----|
G#|---------------------------------------------|-3----5----------------------------------|
D#|---------------------------------------------|-----------------------------------------|

D#|-----------------------------------------|---------------------------------|-------------------------------------|
A#|-----------------------------------------|---------------------8-----------|---------------------12--------------|
F#|-----------------------------------------|-----------%---------7-----%-----|---------------------12----%----%----|
C#|---------------------3----2----0---------|-----------%---------6-----%-----|---------------------12----%----%----|
G#|-3----5----3----5-------------------0----|-3----5--------------7-----------|-------------------------------------|
D#|-----------------------------------------|----------------0----------------|-0----0----0----0--------------------|

D#|-----------------------------------------|-----------------------------------------------------------------|
A#|-----------------------------------------|-----------------------------------------------------------------|
F#|-----------------------------------------|-----------------------------------------------------------------|
C#|-----------------------------------------|-2---2---2---2---2---2---2---2---2---2---2---2---2---2---2---2---|
G#|-5-----5---3-----3-----------------------|-0---0---0---0---0---0---0---0---0---0---0---0---0---0---0---0---|
D#|---------------------3-----3---1-----1---|-----------------------------------------------------------------|

D#|---------------------------------|-------------------------------------|---------------------------------------|
A#|---------------------------------|-------------------------------------|---------------------------------------|
F#|-12---13---15---17---%----15-----|-12---13---15---15---17---20---15----|-12---13---15---17---%-----15----13----|
C#|---------------------%-----------|-------------------------------------|---------------------%-----------------|
G#|-10---11---13---15--------13-----|-10---11---13---13---15---18---13----|-10---11---13---15---------13----11----|
D#|---------------------------------|-------------------------------------|---------------------------------------|

D#|---------|---------------------------------|-------------------------------------|
A#|---------|-13---14---16---18--------16-----|-13---14---16---16---18---21---16----|
F#|-12------|---------------------%-----------|-------------------------------------|
C#|---------|-10---11---13---15---%----13-----|-10---11---13---13---15---18---13----|
G#|-10------|---------------------------------|-------------------------------------|
D#|---------|---------------------------------|-------------------------------------|

D#|---------------------------------------|---------|---------------------------------|
A#|-13---14---16---18---------16----14----|-13------|---------------------------------|
F#|---------------------%-----------------|---------|-12---13---15---17---%----15-----|
C#|-10---11---13---15---%-----13----11----|-10------|---------------------%-----------|
G#|---------------------------------------|---------|-10---11---13---15--------13-----|
D#|---------------------------------------|---------|---------------------------------|

D#|-------------------------------------|---------------------------------------|---------|
A#|-------------------------------------|---------------------------------------|---------|
F#|-12---13---15---15---17---20---15----|-12---13---15---17---%-----15----13----|-12------|
C#|-------------------------------------|---------------------%-----------------|---------|
G#|-10---11---13---13---15---18---13----|-10---11---13---15---------13----11----|-10------|
D#|-------------------------------------|---------------------------------------|---------|

D#|---------------------------------|-----------------------------|---------------------------------|
A#|----------------------------13---|-----------------------------|----------------------------13---|
F#|-2-----2-----2----2----2---------|-----------------------------|-2-----2-----2----2----2---------|
C#|-2-----2-----2----2----2---------|-5-----5----5----5-----5-----|-2-----2-----2----2----2---------|
G#|-0-----0-----0----0----0---------|-3-----3----3----2-----2-----|-0-----0-----0----0----0---------|
D#|---------------------------------|-----------------------1-----|---------------------------------|

D#|-----------------------------|---------------------------------|-----------------------------|
A#|-----------------------------|----------------------------13---|-----------------------------|
F#|-----------------------------|-2-----2-----2----2----2---------|-----------------------------|
C#|-5-----5----5----5-----5-----|-2-----2-----2----2----2---------|-5-----5----5----5-----5-----|
G#|-3-----3----3----2-----2-----|-0-----0-----0----0----0---------|-3-----3----3----2-----2-----|
D#|-----------------------1-----|---------------------------------|-----------------------1-----|

D#|---------------------------------|-----------------------------|---------------------------------|
A#|----------------------------13---|-----------------------------|---------------------------------|
F#|-2-----2-----2----2----2---------|-----------------------------|---------------------------------|
C#|-2-----2-----2----2----2---------|-5-----5----5----5-----5-----|-------7-----7---------5----7----|
G#|-0-----0-----0----0----0---------|-3-----3----3----2-----2-----|------------------7--------------|
D#|---------------------------------|-----------------------1-----|-5-------------------------------|

D#|--------------------------------------------|---------------------------------|---------------------------------------|
A#|--------------------------------------------|---------------------------------|---------------------------------------|
F#|--------------------------------------------|----------------------------9----|-9-----7---5--------9-----7---5--------|
C#|-7---------5----7----7----7----7---5--------|-------7-----7---------5---------|---------------7------------------7----|
G#|------7--------------------------------7----|------------------7--------------|---------------------------------------|
D#|--------------------------------------------|-5-------------------------------|---------------------------------------|

D#|-----------------------------------------------------------|-----------------------------------------------------------|
A#|-----------------------------------------------------------|-----------------------------------------------------------|
F#|-----------------------------------------------------------|-----------------------------------------------------------|
C#|-7---7---7---7---7---6---7---7---7---7---7---5-------------|-7---7---7---7---7---6---7---7---7---7---7---5-------------|
G#|-------------------------------------------------7---------|-------------------------------------------------7---------|
D#|------------------------------------------------------5----|------------------------------------------------------5----|

D#|-----------------------------------------------------------|-----------------------------------------------------------|
A#|-----------------------------------------------------------|-----------------------------------------------------------|
F#|-----------------------------------------------------------|-----------------------------------------------------------|
C#|-7---7---7---7---7---6---7---7---7---7---7---5-------------|-7---7---7---7---7---6---7---7---7---7---7---5-------------|
G#|-------------------------------------------------7---------|-------------------------------------------------7---------|
D#|------------------------------------------------------5----|------------------------------------------------------5----|

D#|-----------------------------------------------------------|-------------------------|
A#|-----------------------------------------------------------|-------------------------|
F#|-----------------------------------------------------------|-------------------------|
C#|-7---7---7---7---7---6---7---7---7---7---7---5-------------|-5-----5-----5-----5-----|
G#|-------------------------------------------------7---------|-3-----2-----3-----2-----|
D#|------------------------------------------------------5----|-------------------------|

D#|-------------------------|-----------------------------------------------------------------|
A#|-------------------------|-----------------------------------------------------------------|
F#|-------------------------|-----------------------------------------------------------------|
C#|-5-----5-----5-----5-----|-------------5---------------5---7---5-------5---6---5-------5---|
G#|-3-----2-----3-----2-----|-----5---6-------8---6---7---------------7---------------6-------|
D#|-------------------------|-8---------------------------------------------------------------|

D#|-------------------------------------------------------------------------|-5----------------------|
A#|-----------------------------------------------------5---6---5---7---5---|------------------------|
F#|---------6---7---6-------6---7---6-------6---7---8-----------------------|------%----%-----%------|
C#|-6---8---------------7---------------7-----------------------------------|------%----%-----%------|
G#|-------------------------------------------------------------------------|------------------------|
D#|-------------------------------------------------------------------------|------------------------|
Black Sabbath - A National Acrobat (2)
Black Sabbath - A National Acrobat (2).gp4