Black Sabbath - After Forever

Black Sabbath



Title: After Forever
Album: Master of Reality
Artist: Black Sabbath
Author: 

Track 1: Guitar
C#|---------------------------|-----------------------------------------------------|
G#|---------------------------|-----------------------------------------------------|
 E|-%------%-----%----%-------|-----------------------------------------------------|
 B|-%------%-----%----%---8---|-8---10--10--10--10----10--10--13--13--13--13----8---|
F#|-----------------------6---|-6---8---8---8---8-----8---8---11--11--11--11----6---|
C#|---------------------------|-----------------------------------------------------|

C#|--------------------------------------------------------|---------|-------------------------------------------|
G#|--------------------------------------------------------|---------|-------------------------------------------|
 E|--------------------------------------------------------|-%-------|------------%----------------------%-------|
 B|-8---10--10--10--10----10---------------------------8---|-%-------|------------%----------------------%-------|
F#|-6---8---8---8---8-----8---6---6---6---6---5----5---6---|---------|-6-----6---------8---6-----6---6-------4---|
C#|---------------------------4---4---4---4---3----3-------|---------|-4-----4---------4---4-----4---4-------2---|

C#|-------------------------------------------|-------------------------------------------|
G#|-------------------------------------------|-------------------------------------------|
 E|------------%----------------------%-------|------------%----------------------%-------|
 B|------------%----------------------%-------|------------%----------------------%-------|
F#|-4-----4---------9---6-----6---6-------6---|-8-----8---------10--8-----8---8-------6---|
C#|-2-----2---------7---4-----4---4-------4---|-6-----6---------6---6-----6---6-------4---|

C#|-------------------------------------------|
G#|-------------------------------------------|
 E|------------%----------------------%-------|
 B|------------%----------------------%-------|
F#|-6-----6---------11--8-----8---8-------8---|
C#|-4-----4---------9---6-----6---6-------6---|
Black Sabbath - After Forever
Black Sabbath - After Forever.gp3