Black Sabbath - After Forever (3)

Black Sabbath



Title: After Forever
Album: Master of Reality
Artist: Black Sabbath
Author: David Maas

Track 1: Tony Iommi (Guitar God)
E|---------|---------------|---------|---------|-------------------------------|--------------------------------------|
B|---------|---------------|---------|---------|-------------------------------|--------------------------------------|
G|-%-------|-%------0------|-0-------|-0-------|-0-----------------------------|--------------------------------------|
D|-%-------|-%------0------|-0-------|-0-------|-0-----11----9-----7-----5-----|---------5----2-----0-----2-----0-----|
A|---------|--------3------|---------|---------|-------0-----0-----0-----0-----|-5---7--------0-----0-----0-----0-----|
E|---------|--------3------|-3-------|-3-------|-3-----------------------------|--------------------------------------|

E|--------------------------------------|--------------------------------------|--------------------------------------------------------|
B|--------------------------------------|--------------------------------------|--------------------------------------------------------|
G|--------------------------------------|--------------------------------------|--------------------------------------------------------|
D|---------5----11----9-----7-----5-----|---------5----2-----0-----2-----0-----|---------5----9---9---9---9---9-----9---12--12--12--12--|
A|-5---7--------0-----0-----0-----0-----|-5---7--------0-----0-----0-----0-----|-5---7--------7---7---7---7---7-----7---10--10--10--10--|
E|--------------------------------------|--------------------------------------|--------------------------------------------------------|

E|-----------------------------------------------------|--------------------------------------------------------|
B|-----------------------------------------------------|--------------------------------------------------------|
G|-----------------------------------------------------|-----%--------------------------------------------------|
D|-12----7---9---9---9---9---9-------------------------|-----%--------9---9---9---9---9-----9---12--12--12--12--|
A|-10----5---7---7---7---7---7---------5---5---5---5---|-5-------4----7---7---7---7---7-----7---10--10--10--10--|
E|---------------------------------0---3---3---3---3---|-3-------2----------------------------------------------|

E|-----------------------------------------------------|--------------------------------------|
B|-----------------------------------------------------|--------------------------------------|
G|-----------------------------------------------------|-----%--------------------------------|
D|-12----7---9---9---9---9---9-------------------------|-----%--------11----9-----7-----5-----|
A|-10----5---7---7---7---7---7---------5---5---5---5---|-5-------4----0-----0-----0-----0-----|
E|---------------------------------0---3---3---3---3---|-3-------2----------------------------|

E|--------------------------------------|--------------------------------------|--------------------------------------|
B|--------------------------------------|--------------------------------------|--------------------------------------|
G|--------------------------------------|--------------------------------------|--------------------------------------|
D|---------5----2-----0-----2-----0-----|---------5----11----9-----7-----5-----|---------5----2-----0-----2-----0-----|
A|-5---7--------0-----0-----0-----0-----|-5---7--------0-----0-----0-----0-----|-5---7--------0-----0-----0-----0-----|
E|--------------------------------------|--------------------------------------|--------------------------------------|

E|--------------------------------------------------------|-----------------------------------------------------|
B|--------------------------------------------------------|-----------------------------------------------------|
G|--------------------------------------------------------|-----------------------------------------------------|
D|---------5----9---9---9---9---9-----9---12--12--12--12--|-12----7---9---9---9---9---9-------------------------|
A|-5---7--------7---7---7---7---7-----7---10--10--10--10--|-10----5---7---7---7---7---7---------5---5---5---5---|
E|--------------------------------------------------------|---------------------------------0---3---3---3---3---|

E|--------------------------------------------------------|-----------------------------------------------------|
B|--------------------------------------------------------|-----------------------------------------------------|
G|-----%--------------------------------------------------|-----------------------------------------------------|
D|-----%--------9---9---9---9---9-----9---12--12--12--12--|-12----7---9---9---9---9---9-------------------------|
A|-5-------4----7---7---7---7---7-----7---10--10--10--10--|-10----5---7---7---7---7---7---------5---5---5---5---|
E|-3-------2----------------------------------------------|---------------------------------0---3---3---3---3---|

E|-------------------------------------------|----------------------------------------|
B|-------------------------------------------|----------------------------------------|
G|-----%-------------%---------%-------------|------------%---------%-----------------|
D|-----%--------5----%----5----%---5---7-----|-5-----3----%----3----%---3---8----3----|
A|-5-------4----5---------5--------5---7-----|-5-----3---------3--------3---8----3----|
E|-3-------2---------------------------------|----------------------------------------|

E|------------------------------------|----------------------------------------|----------------------------------------|
B|------------------------------------|----------------------------------------|----------------------------------------|
G|------------%---------%-------------|------------%---------%-----------------|------%---------%---------%-------------|
D|-5-----5----%----5----%---5---7-----|-5-----3----%----3----%---3---8----3----|-5----%----7----%----7----%---7---9-----|
A|-5-----5---------5--------5---7-----|-5-----3---------3--------3---8----3----|-5---------7---------7--------7---9-----|
E|------------------------------------|----------------------------------------|----------------------------------------|

E|----------------------------------------|------------------------------------|----------------------------------------|
B|----------------------------------------|------------------------------------|----------------------------------------|
G|------------%---------%-----------------|------------%---------%-------------|------------%---------%-----------------|
D|-7-----5----%----5----%---5---10---5----|-7-----7----%----7----%---7---9-----|-7-----5----%----5----%---5---10---5----|
A|-7-----5---------5--------5---10---5----|-7-----7---------7--------7---9-----|-7-----5---------5--------5---10---5----|
E|----------------------------------------|------------------------------------|----------------------------------------|

E|-------------------------------|--------------------------------------|--------------------------------------|
B|-------------------------------|--------------------------------------|--------------------------------------|
G|-------------------------------|--------------------------------------|--------------------------------------|
D|-7-----11----9-----7-----5-----|---------5----2-----0-----2-----0-----|---------5----11----9-----7-----5-----|
A|-7-----0-----0-----0-----0-----|-5---7--------0-----0-----0-----0-----|-5---7--------0-----0-----0-----0-----|
E|-------------------------------|--------------------------------------|--------------------------------------|

E|--------------------------------------|--------------------------------------------------------|
B|--------------------------------------|--------------------------------------------------------|
G|--------------------------------------|--------------------------------------------------------|
D|---------5----2-----0-----2-----0-----|---------5----9---9---9---9---9-----9---12--12--12--12--|
A|-5---7--------0-----0-----0-----0-----|-5---7--------7---7---7---7---7-----7---10--10--10--10--|
E|--------------------------------------|--------------------------------------------------------|

E|-----------------------------------------------------|--------------------------------------------------------|
B|-----------------------------------------------------|--------------------------------------------------------|
G|-----------------------------------------------------|-----%--------------------------------------------------|
D|-12----7---9---9---9---9---9-------------------------|-----%--------9---9---9---9---9-----9---12--12--12--12--|
A|-10----5---7---7---7---7---7---------5---5---5---5---|-5-------4----7---7---7---7---7-----7---10--10--10--10--|
E|---------------------------------0---3---3---3---3---|-3-------2----------------------------------------------|

E|-----------------------------------------------------|---------------------------|
B|-----------------------------------------------------|---------------------------|
G|-----------------------------------------------------|-----%---------------------|
D|-12----7---9---9---9---9---9-------------------------|-----%---------------------|
A|-10----5---7---7---7---7---7---------5---5---5---5---|-5-------4----2------2-----|
E|---------------------------------0---3---3---3---3---|-3-------2----0------0-----|
Black Sabbath - After Forever (3)
Black Sabbath - After Forever (3).gp3