Black Sabbath - Anno Mundi

Black Sabbath



Title: Anno Mundi
Album: TYR
Artist: Black Sabbath
Author: 

Track 1: Guitar I
E|---------------------------------|------------0----------0---------|---------------------------------|
B|-----------------4---------------|-------0---------4----------0----|------------2----4-----2---------|
G|------------6----------6---------|---------------------------------|-------1--------------------1----|
D|-------6--------------------6----|---------------------------------|---------------------------------|
A|-4-------------------------------|-7-------------------------------|-4-------------------------------|
E|---------------------------------|---------------------------------|---------------------------------|

E|-----------------------------------------|---------------------------------|------------0----------0---------|
B|-----------------------------------------|------------2----4-----2---------|-------0---------4----------0----|
G|-----------------------------------------|-------1--------------------1----|---------------------------------|
D|------1----4--------------4---------1----|---------------------------------|-2-------------------------------|
A|-2--------------1----4---------2---------|-4-------------------------------|---------------------------------|
E|-----------------------------------------|---------------------------------|---------------------------------|

E|---------------------------------|-------------------------|---------------------------------|
B|------------2----4---------------|-------------------------|------------2----4-----2---------|
G|-------1-------------------------|-------------------------|-------1--------------------1----|
D|---------------------------------|-------2-----1-----------|---------------------------------|
A|-4---------------------2----1----|-0-----------------1-----|-4-------------------------------|
E|---------------------------------|-------------------------|---------------------------------|

E|------------0----------0---------|---------------------------------|-----------------------------------------|
B|-------0---------4----------0----|------------2----4-----2---------|-----------------------------------------|
G|---------------------------------|-------1--------------------1----|-----------------------------------------|
D|-2-------------------------------|---------------------------------|------1----4--------------4---------1----|
A|---------------------------------|-4-------------------------------|-2--------------1----4---------2---------|
E|---------------------------------|---------------------------------|-----------------------------------------|

E|---------------------------------|------------0----------0---------|---------------------------------|
B|------------2----4-----2---------|-------0---------4----------0----|------------2----4---------------|
G|-------1--------------------1----|---------------------------------|-------1-------------------------|
D|---------------------------------|-2-------------------------------|---------------------------------|
A|-4-------------------------------|---------------------------------|-4---------------------2----1----|
E|---------------------------------|---------------------------------|---------------------------------|

E|-------------------------|---------------------------------|------------0----------0---------|
B|-------------------------|------------2----4-----2---------|-------0---------4----------0----|
G|-------------------------|-------1--------------------1----|---------------------------------|
D|-------2-----1-----------|---------------------------------|-2-------------------------------|
A|-0-----------------1-----|-4-------------------------------|---------------------------------|
E|-------------------------|---------------------------------|---------------------------------|

E|---------------------------------|-----------------------------------------|---------------------------------|
B|------------2----4-----2---------|-----------------------------------------|------------2----4-----2---------|
G|-------1--------------------1----|-----------------------------------------|-------1--------------------1----|
D|---------------------------------|------1----4--------------4---------1----|---------------------------------|
A|-4-------------------------------|-2--------------1----4---------2---------|-4-------------------------------|
E|---------------------------------|-----------------------------------------|---------------------------------|

E|------------0----------0---------|---------------------------------|-------------------------|
B|-------0---------4----------0----|------------2----4---------------|-------------------------|
G|---------------------------------|-------1-------------------------|-------------------------|
D|-2-------------------------------|---------------------------------|-------2-----1-----------|
A|---------------------------------|-4---------------------2----1----|-0-----------------1-----|
E|---------------------------------|---------------------------------|-------------------------|

E|---------------------------------|------------0----------0---------|---------------------------------|
B|------------2----4-----2---------|-------0---------4----------0----|------------2----4-----2---------|
G|-------1--------------------1----|---------------------------------|-------1--------------------1----|
D|---------------------------------|-2-------------------------------|---------------------------------|
A|-4-------------------------------|---------------------------------|-4-------------------------------|
E|---------------------------------|---------------------------------|---------------------------------|

E|-----------------------------------------|---------------------------------|------------0----------0---------|
B|-----------------------------------------|------------2----4-----2---------|-------0---------4----------0----|
G|-----------------------------------------|-------1--------------------1----|---------------------------------|
D|------1----4--------------4---------1----|---------------------------------|-2-------------------------------|
A|-2--------------1----4---------2---------|-4-------------------------------|---------------------------------|
E|-----------------------------------------|---------------------------------|---------------------------------|

E|---------------------------------|-------------------------|---------|---------|---------|
B|------------2----4---------------|-------------------------|---------|---------|---------|
G|-------1-------------------------|-------------------------|---------|---------|-%-------|
D|---------------------------------|-------2-----1-----------|---------|---------|-%-------|
A|-4---------------------2----1----|-0-----------------1-----|-4-------|-4-------|---------|
E|---------------------------------|-------------------------|---------|---------|---------|

E|---------|---------|---------|---------|---------|---------|---------|---------|---------|
B|---------|---------|---------|---------|---------|---------|---------|---------|---------|
G|-%-------|-%-------|-%-------|-%-------|-%-------|-%-------|-%-------|-%-------|-%-------|
D|-%-------|-%-------|-%-------|-%-------|-%-------|-%-------|-%-------|-%-------|-%-------|
A|---------|---------|---------|---------|---------|---------|---------|---------|---------|
E|---------|---------|---------|---------|---------|---------|---------|---------|---------|

E|---------|---------|---------|---------|---------|---------|---------|---------|---------|
B|---------|---------|---------|---------|---------|---------|---------|---------|---------|
G|-%-------|-%-------|-%-------|-%-------|-%-------|-%-------|-%-------|-%-------|-%-------|
D|-%-------|-%-------|-%-------|-%-------|-%-------|-%-------|-%-------|-%-------|-%-------|
A|---------|---------|---------|---------|---------|---------|---------|---------|---------|
E|---------|---------|---------|---------|---------|---------|---------|---------|---------|

E|---------|---------|---------|---------|---------|---------|---------|---------|---------|
B|---------|---------|---------|---------|---------|---------|---------|---------|---------|
G|-%-------|-%-------|-%-------|-%-------|-%-------|-%-------|-%-------|-%-------|-%-------|
D|-%-------|-%-------|-%-------|-%-------|-%-------|-%-------|-%-------|-%-------|-%-------|
A|---------|---------|---------|---------|---------|---------|---------|---------|---------|
E|---------|---------|---------|---------|---------|---------|---------|---------|---------|

E|---------|---------|---------|---------|---------|---------|---------|---------|---------|
B|---------|---------|---------|---------|---------|---------|---------|---------|---------|
G|-%-------|-%-------|-%-------|-%-------|-%-------|-%-------|-%-------|-%-------|-%-------|
D|-%-------|-%-------|-%-------|-%-------|-%-------|-%-------|-%-------|-%-------|-%-------|
A|---------|---------|---------|---------|---------|---------|---------|---------|---------|
E|---------|---------|---------|---------|---------|---------|---------|---------|---------|

E|---------|---------|---------|---------|---------|---------|---------|---------|---------|
B|---------|---------|---------|---------|---------|---------|---------|---------|---------|
G|-%-------|-%-------|-%-------|-%-------|-%-------|-%-------|-%-------|-%-------|-%-------|
D|-%-------|-%-------|-%-------|-%-------|-%-------|-%-------|-%-------|-%-------|-%-------|
A|---------|---------|---------|---------|---------|---------|---------|---------|---------|
E|---------|---------|---------|---------|---------|---------|---------|---------|---------|

E|---------|---------|---------|---------|---------|---------|---------|---------|---------|
B|---------|---------|---------|---------|---------|---------|---------|---------|---------|
G|-%-------|-%-------|-%-------|-%-------|-%-------|-%-------|-%-------|-%-------|-%-------|
D|-%-------|-%-------|-%-------|-%-------|-%-------|-%-------|-%-------|-%-------|-%-------|
A|---------|---------|---------|---------|---------|---------|---------|---------|---------|
E|---------|---------|---------|---------|---------|---------|---------|---------|---------|

E|---------|---------|---------|---------|---------|---------|---------|---------|---------|
B|---------|---------|---------|---------|---------|---------|---------|---------|---------|
G|-%-------|-%-------|-%-------|-%-------|-%-------|-%-------|-%-------|-%-------|-%-------|
D|-%-------|-%-------|-%-------|-%-------|-%-------|-%-------|-%-------|-%-------|-%-------|
A|---------|---------|---------|---------|---------|---------|---------|---------|---------|
E|---------|---------|---------|---------|---------|---------|---------|---------|---------|

E|---------|---------|---------|---------|---------|---------|---------|---------|---------|
B|---------|---------|---------|---------|---------|---------|---------|---------|---------|
G|-%-------|-%-------|-%-------|-%-------|-%-------|-%-------|-%-------|-%-------|-%-------|
D|-%-------|-%-------|-%-------|-%-------|-%-------|-%-------|-%-------|-%-------|-%-------|
A|---------|---------|---------|---------|---------|---------|---------|---------|---------|
E|---------|---------|---------|---------|---------|---------|---------|---------|---------|

E|---------|---------|---------|---------|---------|---------|---------|---------|---------|
B|---------|---------|---------|---------|---------|---------|---------|---------|---------|
G|-%-------|-%-------|-%-------|-%-------|-%-------|-%-------|-%-------|-%-------|-%-------|
D|-%-------|-%-------|-%-------|-%-------|-%-------|-%-------|-%-------|-%-------|-%-------|
A|---------|---------|---------|---------|---------|---------|---------|---------|---------|
E|---------|---------|---------|---------|---------|---------|---------|---------|---------|

E|---------|---------|---------|---------|---------|---------|---------|---------|---------|
B|---------|---------|---------|---------|---------|---------|---------|---------|---------|
G|-%-------|-%-------|-%-------|-%-------|-%-------|-%-------|-%-------|-%-------|-%-------|
D|-%-------|-%-------|-%-------|-%-------|-%-------|-%-------|-%-------|-%-------|-%-------|
A|---------|---------|---------|---------|---------|---------|---------|---------|---------|
E|---------|---------|---------|---------|---------|---------|---------|---------|---------|

E|---------|---------|---------|---------|---------|---------|---------|---------|---------|
B|---------|---------|---------|---------|---------|---------|---------|---------|---------|
G|-%-------|-%-------|-%-------|-%-------|-%-------|-%-------|-%-------|-%-------|-%-------|
D|-%-------|-%-------|-%-------|-%-------|-%-------|-%-------|-%-------|-%-------|-%-------|
A|---------|---------|---------|---------|---------|---------|---------|---------|---------|
E|---------|---------|---------|---------|---------|---------|---------|---------|---------|

E|---------|---------------------------------|------------0----------0---------|---------------------------------|
B|---------|-----------------4---------------|-------0---------4----------0----|------------2----4-----2---------|
G|-%-------|------------6----------6---------|---------------------------------|-------1--------------------1----|
D|-%-------|-------6--------------------6----|---------------------------------|---------------------------------|
A|---------|-4-------------------------------|-7-------------------------------|-4-------------------------------|
E|---------|---------------------------------|---------------------------------|---------------------------------|

E|-----------------------------------------|---------------------------------|------------0----------0---------|
B|-----------------------------------------|------------2----4-----2---------|-------0---------4----------0----|
G|-----------------------------------------|-------1--------------------1----|---------------------------------|
D|------1----4--------------4---------1----|---------------------------------|-2-------------------------------|
A|-2--------------1----4---------2---------|-4-------------------------------|---------------------------------|
E|-----------------------------------------|---------------------------------|---------------------------------|

E|---------------------------------|-------------------------|---------------------------------|
B|------------2----4---------------|-------------------------|------------2----4-----2---------|
G|-------1-------------------------|-------------------------|-------1--------------------1----|
D|---------------------------------|-------2-----1-----------|---------------------------------|
A|-4---------------------2----1----|-0-----------------1-----|-4-------------------------------|
E|---------------------------------|-------------------------|---------------------------------|

E|------------0----------0---------|---------------------------------|-----------------------------------------|
B|-------0---------4----------0----|------------2----4-----2---------|-----------------------------------------|
G|---------------------------------|-------1--------------------1----|-----------------------------------------|
D|-2-------------------------------|---------------------------------|------1----4--------------4---------1----|
A|---------------------------------|-4-------------------------------|-2--------------1----4---------2---------|
E|---------------------------------|---------------------------------|-----------------------------------------|

E|---------------------------------|------------0----------0---------|---------------------------------|
B|------------2----4-----2---------|-------0---------4----------0----|------------2----4---------------|
G|-------1--------------------1----|---------------------------------|-------1-------------------------|
D|---------------------------------|-2-------------------------------|---------------------------------|
A|-4-------------------------------|---------------------------------|-4---------------------2----1----|
E|---------------------------------|---------------------------------|---------------------------------|

E|-------------------------|---------|---------|---------|---------|---------|---------|
B|-------------------------|---------|---------|---------|---------|---------|---------|
G|-------------------------|-%-------|-%-------|-%-------|-%-------|-%-------|-%-------|
D|-------2-----1-----------|-%-------|-%-------|-%-------|-%-------|-%-------|-%-------|
A|-0-----------------1-----|---------|---------|---------|---------|---------|---------|
E|-------------------------|---------|---------|---------|---------|---------|---------|

E|---------|---------|---------|---------|---------|---------|---------|---------|---------|
B|---------|---------|---------|---------|---------|---------|---------|---------|---------|
G|-%-------|-%-------|-%-------|-%-------|-%-------|-%-------|-%-------|-%-------|-%-------|
D|-%-------|-%-------|-%-------|-%-------|-%-------|-%-------|-%-------|-%-------|-%-------|
A|---------|---------|---------|---------|---------|---------|---------|---------|---------|
E|---------|---------|---------|---------|---------|---------|---------|---------|---------|

E|---------|---------|---------|---------|---------|---------|---------|---------|---------|
B|---------|---------|---------|---------|---------|---------|---------|---------|---------|
G|-%-------|-%-------|-%-------|-%-------|-%-------|-%-------|-%-------|-%-------|-%-------|
D|-%-------|-%-------|-%-------|-%-------|-%-------|-%-------|-%-------|-%-------|-%-------|
A|---------|---------|---------|---------|---------|---------|---------|---------|---------|
E|---------|---------|---------|---------|---------|---------|---------|---------|---------|

E|---------|---------|---------|---------|---------|---------|---------|---------|---------|
B|---------|---------|---------|---------|---------|---------|---------|---------|---------|
G|-%-------|-%-------|-%-------|-%-------|-%-------|-%-------|-%-------|-%-------|-%-------|
D|-%-------|-%-------|-%-------|-%-------|-%-------|-%-------|-%-------|-%-------|-%-------|
A|---------|---------|---------|---------|---------|---------|---------|---------|---------|
E|---------|---------|---------|---------|---------|---------|---------|---------|---------|

E|---------|---------|---------|---------|---------|---------|---------|---------|---------|
B|---------|---------|---------|---------|---------|---------|---------|---------|---------|
G|-%-------|-%-------|-%-------|-%-------|-%-------|-%-------|-%-------|-%-------|-%-------|
D|-%-------|-%-------|-%-------|-%-------|-%-------|-%-------|-%-------|-%-------|-%-------|
A|---------|---------|---------|---------|---------|---------|---------|---------|---------|
E|---------|---------|---------|---------|---------|---------|---------|---------|---------|

E|---------|---------|---------|---------|---------|---------|---------|---------|---------|
B|---------|---------|---------|---------|---------|---------|---------|---------|---------|
G|-%-------|-%-------|-%-------|-%-------|-%-------|-%-------|-%-------|-%-------|-%-------|
D|-%-------|-%-------|-%-------|-%-------|-%-------|-%-------|-%-------|-%-------|-%-------|
A|---------|---------|---------|---------|---------|---------|---------|---------|---------|
E|---------|---------|---------|---------|---------|---------|---------|---------|---------|

E|---------|---------|---------|---------|---------|---------|---------|---------|---------|
B|---------|---------|---------|---------|---------|---------|---------|---------|---------|
G|-%-------|-%-------|-%-------|-%-------|-%-------|-%-------|-%-------|-%-------|-%-------|
D|-%-------|-%-------|-%-------|-%-------|-%-------|-%-------|-%-------|-%-------|-%-------|
A|---------|---------|---------|---------|---------|---------|---------|---------|---------|
E|---------|---------|---------|---------|---------|---------|---------|---------|---------|

E|---------|---------|---------|---------|---------|---------|---------|---------|
B|---------|---------|---------|---------|---------|---------|---------|---------|
G|-%-------|-%-------|-%-------|-%-------|-%-------|-%-------|-%-------|-%-------|
D|-%-------|-%-------|-%-------|-%-------|-%-------|-%-------|-%-------|-%-------|
A|---------|---------|---------|---------|---------|---------|---------|---------|
E|---------|---------|---------|---------|---------|---------|---------|---------|
Black Sabbath - Anno Mundi
Black Sabbath - Anno Mundi.gp4