Black Sabbath - Bassically

Black Sabbath - Bassically

Black Sabbath



Title: Bassically
Album: Black Sabbath
Artist: Black Sabbath
Author: Black Sabbath

Track 1: Bass
G|-------------------------------------|-------------------------------------|-------------------------------------|
D|-%------------------------5----------|-5----7-----7----7----5--------------|------5---------------7----7----9----|
A|-%----7----7----5---------------7----|---------------------------7----5----|------------5----7-------------------|
E|---------------------7---------------|-------------------------------------|-7-----------------------------------|

G|-9----9----7----9----9----7--------------|-------------------------------------|-----------------------------------------|
D|-------------------------------9----7----|-9-------------------5-----7----7----|-5---------------------------------------|
A|-----------------------------------------|------10---5----7--------------------|------7----5-----------------------------|
E|-----------------------------------------|-------------------------------------|----------------7----5----3----0----5----|

G|-----------------------------------------|--------------------------7----9----9----|
D|----------------5--------------5----7----|-7----5---------7----9-------------------|
A|------7----7---------7----7--------------|-----------7-----------------------------|
E|-7---------------------------------------|-----------------------------------------|

G|-9----7----------------------------------|-------------------------------------|-----------------------------------------|
D|-----------9----7----9---------5---------|---------------------------5----7----|-7----5---------5------------------------|
A|--------------------------10--------7----|-----------------5----7--------------|-----------7---------7-------------------|
E|-----------------------------------------|-7-----5----7------------------------|--------------------------7----5----3----|

G|-----------------------------------------|-------------------------------------|-------------------------------------|
D|--------------------------5--------------|-----------------5----7----7----7----|-5--------------5----5----7----7-----|
A|----------------5----7---------7----7----|-5----7-----7------------------------|------5----7-------------------------|
E|-0----5----7-----------------------------|-------------------------------------|-------------------------------------|

G|-----------------------------------------|-----------------------------------------|
D|-7----5----------------------------------|------5----7----7----7----5---------7----|
A|-----------7----7----5--------------5----|-7-----------------------------7---------|
E|--------------------------5----7---------|-----------------------------------------|

G|------9----9----9----7-------------------|-------------------------------------|-------------------------------------|
D|-9------------------------7----9----5----|----------------5--------------------|-------------------------------5-----|
A|-----------------------------------------|-7----5---------------7----5---------|------7----5---------5----7----------|
E|-----------------------------------------|-----------7--------------------5----|-7--------------7--------------------|

G|-------------------------------------|-------------------------------------|-------------------------------------|
D|-------------------------------------|-----------5----7----5---------------|---------------------7-----7----5----|
A|-7-----5---------7---------5---------|-7------------------------7-----7----|-5---------5----7--------------------|
E|------------7---------7---------7----|------7------------------------------|------7------------------------------|

G|-------------------------------------|---------|---------------------------------|
D|-------------------------------------|---------|----------------------5----4-----|
A|-7----7----7----7----5----------5----|-7-------|-7----7----5----7----------------|
E|---------------------------7---------|---------|---------------------------------|

G|-------------------------------------|---------------------------------|-------------------------------------------|
D|----------------------7----7----5----|----------------------5----4-----|--------------------------------------5----|
A|-7----7----5----7--------------------|-7----7----5----7----------------|-7----7----5----7-------------5---7--------|
E|-------------------------------------|---------------------------------|----------------------5---7----------------|
Black Sabbath - Bassically
Black Sabbath - Bassically.gp3