Black Sabbath - Behind the Wall of Sleep

Black Sabbath - Behind the Wall of Sleep

Black Sabbath



Title: Behind the Wall of Sleep
Album: 
Artist: Black Sabbath
Author: Black Sabbath

Track 1: Guitar
E|-----------------------------|-----------------------------|-----------------------------|
B|-----------------------------|-----------------------------|-----------------------------|
G|-8-----8-----8----8-----8----|-7-----7-----7----7-----7----|-8-----8-----8----8-----8----|
D|-9-----9-----9----9-----9----|-7-----7-----7----7-----7----|-9-----9-----9----9-----9----|
A|-9-----9-----9----9-----9----|-7-----7-----7----7-----7----|-9-----9-----9----9-----9----|
E|-7-----7-----7----7-----7----|-7-----7-----7----7-----7----|-7-----7-----7----7-----7----|

E|-----------------------------|-----------------------------|-----------------------------|
B|-----------------------------|-----------------------------|-----------------------------|
G|-7-----7-----7----7-----7----|-8-----8-----8----8-----8----|-7-----7-----7----7-----7----|
D|-7-----7-----7----7-----7----|-9-----9-----9----9-----9----|-7-----7-----7----7-----7----|
A|-7-----7-----7----7-----7----|-9-----9-----9----9-----9----|-7-----7-----7----7-----7----|
E|-7-----7-----7----7-----7----|-7-----7-----7----7-----7----|-7-----7-----7----7-----7----|

E|-----------------------------|-----------------------------|------------------------------------|
B|-----------------------------|-----------------------------|------------------------------------|
G|-8-----8-----8----8-----8----|-7-----7-----7----7-----7----|-8----%----8----%----7----%----7----|
D|-9-----9-----9----9-----9----|-7-----7-----7----7-----7----|-9----%----9----%---------%---------|
A|-9-----9-----9----9-----9----|-7-----7-----7----7-----7----|-9---------9------------------------|
E|-7-----7-----7----7-----7----|-7-----7-----7----7-----7----|-7---------7------------------------|

E|------------------------------------------|------------------------------------|-----------------------------------------|
B|------------------------------------------|------------------------------------|-----------------------------------------|
G|-7----6-----------------------------------|-8----%----8----%-------------------|-----------------------------------------|
D|-----------9----9----7---------7----------|-9----%----9----%--------------7----|-----------------------------------------|
A|--------------------------9----------9----|-9---------9---------7----9---------|-9---7----5----7----5---------5-----0----|
E|------------------------------------------|-7---------7------------------------|-------------------------7---------------|

E|------------------------------------|------------------------------------------|------------------------------------|
B|------------------------------------|------------------------------------------|------------------------------------|
G|-8----%----8----%----7----%----7----|-7----6-----------------------------------|-8----%----8----%-------------------|
D|-9----%----9----%---------%---------|-----------9----9----7---------7----------|-9----%----9----%--------------7----|
A|-9---------9------------------------|--------------------------9----------9----|-9---------9---------7----9---------|
E|-7---------7------------------------|------------------------------------------|-7---------7------------------------|

E|-----------------------------------------|-----------------------------|-----------------------------|
B|-----------------------------------------|-----------------------------|-----------------------------|
G|-----------------------------------------|-8-----8-----8----8-----8----|-7-----7-----7----7-----7----|
D|-----------------------------------------|-9-----9-----9----9-----9----|-7-----7-----7----7-----7----|
A|-9---7----5----7----5---------5-----0----|-9-----9-----9----9-----9----|-7-----7-----7----7-----7----|
E|-------------------------7---------------|-7-----7-----7----7-----7----|-7-----7-----7----7-----7----|

E|-----------------------------|-----------------------------|-----------------------------|
B|-----------------------------|-----------------------------|-----------------------------|
G|-8-----8-----8----8-----8----|-7-----7-----7----7-----7----|-8-----8-----8----8-----8----|
D|-9-----9-----9----9-----9----|-7-----7-----7----7-----7----|-9-----9-----9----9-----9----|
A|-9-----9-----9----9-----9----|-7-----7-----7----7-----7----|-9-----9-----9----9-----9----|
E|-7-----7-----7----7-----7----|-7-----7-----7----7-----7----|-7-----7-----7----7-----7----|

E|-----------------------------|-----------------------------|-----------------------------|
B|-----------------------------|-----------------------------|-----------------------------|
G|-7-----7-----7----7-----7----|-8-----8-----8----8-----8----|-7-----7-----7----7-----7----|
D|-7-----7-----7----7-----7----|-9-----9-----9----9-----9----|-7-----7-----7----7-----7----|
A|-7-----7-----7----7-----7----|-9-----9-----9----9-----9----|-7-----7-----7----7-----7----|
E|-7-----7-----7----7-----7----|-7-----7-----7----7-----7----|-7-----7-----7----7-----7----|

E|---------|---------|------------------------------------|---------|------------------------------------|
B|---------|---------|------------------------------------|---------|------------------------------------|
G|---------|---------|------------------------------------|---------|------------------------------------|
D|-9-------|-9-------|-------------5--7----5----5---7-----|-7-------|-------------5--7----5--------------|
A|-9-------|-9-------|-0-----3----------------------------|---------|-0-----3------------------5---7-----|
E|-7-------|-7-------|------------------------------------|---------|------------------------------------|

E|---------|------------------------------------|---------|------------------------------------|
B|---------|------------------------------------|---------|------------------------------------|
G|---------|------------------------------------|---------|------------------------------------|
D|---------|-------------5--7----5----5---7-----|-7-------|-------------5--7----5--------------|
A|-7-------|-0-----3----------------------------|---------|-0-----3------------------5---7-----|
E|---------|------------------------------------|---------|------------------------------------|

E|---------|----------------------------------|-------------------|------------------------------------|
B|---------|----------------------------------|-------------------|------------------------------------|
G|---------|-2-----2--------------------------|-------------------|------------------------------------|
D|---------|-0-----0---------0---1---0--------|-2-----------------|-------------5--7----5----5---7-----|
A|-7-------|-------------3---------------3----|-0-----------------|-0-----3----------------------------|
E|---------|----------------------------------|---------5-----0---|------------------------------------|

E|---------|------------------------------------|---------|------------------------------------|
B|---------|------------------------------------|---------|------------------------------------|
G|---------|------------------------------------|---------|------------------------------------|
D|-7-------|-------------5--7----5--------------|---------|-------------5--7----5----5---7-----|
A|---------|-0-----3------------------5---7-----|-7-------|-0-----3----------------------------|
E|---------|------------------------------------|---------|------------------------------------|

E|---------|------------------------------------|---------|----------------------------------|
B|---------|------------------------------------|---------|----------------------------------|
G|---------|------------------------------------|---------|-2-----2--------------------------|
D|-7-------|-------------5--7----5--------------|---------|-0-----0---------0---1---0--------|
A|---------|-0-----3------------------5---7-----|-7-------|-------------3---------------3----|
E|---------|------------------------------------|---------|----------------------------------|

E|-------------------|-----------------------|--------7------7-------|-----------------------|
B|-------------------|-----------------------|--------10-----10------|-----------------------|
G|-------------------|--------7------7-------|-----------------------|--------7------7-------|
D|-2-------2-----7---|-9-----------------7---|-9-----------------7---|-9-----------------7---|
A|-0-------0-----7---|-9-----------------7---|-9-----------------7---|-9-----------------7---|
E|---------------5---|-7-----------------5---|-7-----------------5---|-7-----------------5---|

E|--------7------7-------|-----------------------|--------7------7-------|-----------------------|
B|--------10-----10------|-----------------------|--------10-----10------|-----------------------|
G|-----------------------|--------7------7-------|-----------------------|--------7------7-------|
D|-9-----------------7---|-9-----------------7---|-9-----------------7---|-9-----------------7---|
A|-9-----------------7---|-9-----------------7---|-9-----------------7---|-9-----------------7---|
E|-7-----------------5---|-7-----------------5---|-7-----------------5---|-7-----------------5---|

E|--------7------7-------|-----------------------|--------7------7-------|-----------------------|
B|--------10-----10------|-----------------------|--------10-----10------|-----------------------|
G|-----------------------|--------7------7-------|-----------------------|--------7------7-------|
D|-9-----------------7---|-9-----------------7---|-9-----------------7---|-9-----------------7---|
A|-9-----------------7---|-9-----------------7---|-9-----------------7---|-9-----------------7---|
E|-7-----------------5---|-7-----------------5---|-7-----------------5---|-7-----------------5---|

E|--------7------7-----|---------------------------------------|-------------------------------------------|
B|--------10-----10----|-10----10---7-------7---10--7----7-----|---------------10--10--12--12---12---12----|
G|---------------------|----------------9----------------------|-%----%---9--------------------------------|
D|-9-------------------|---------------------------------------|-%----%------------------------------------|
A|-9-------------------|---------------------------------------|-------------------------------------------|
E|-7-------------------|---------------------------------------|-------------------------------------------|

E|--------------------------7--------7--------------------|----------------------------------------------------7-------|
B|-12--10---------------7-------10-------10--7------------|------------------------------------------------7-------10--|
G|---------9----7---9----------------------------9----7---|-9---7-------7------------------------------9---------------|
D|--------------------------------------------------------|---------9--------9---7----------------7--------------------|
A|--------------------------------------------------------|--------------------------9----7---9------------------------|
E|--------------------------------------------------------|------------------------------------------------------------|

E|-------7------------------------------------------|------------------7----------------------------------------|
B|-10--------10--7-----------------------------10---|--------------7-------10--7---------------------------7----|
G|-------------------9----7---9---9---7---9---------|-9----7---9-------------------9---9---7-------7---9--------|
D|--------------------------------------------------|------------------------------------------9----------------|
A|--------------------------------------------------|-----------------------------------------------------------|
E|--------------------------------------------------|-----------------------------------------------------------|

E|--------------------------------------------------|----------------------------------------|
B|-10--7--------------------------------------------|----------------------------------------|
G|---------9----9---7-------------------------------|----------------------------------------|
D|----------------------9----9---7--------7---9-----|-9------6---7---6---7---6---7---6---7---|
A|-----------------------------------9--------------|----------------------------------------|
E|--------------------------------------------------|----------------------------------------|

E|----------------------------|----------------------------------|-------------------|
B|----------------------------|-----------------------------7----|-------------------|
G|----------------------------|----------------------------------|-------------------|
D|-6----4----4----4----4------|-4------6---7---6---7---6---------|-7---9-----9-------|
A|----------------------------|----------------------------------|-------------------|
E|----------------------------|----------------------------------|-------------------|

E|---------|-----------------------------|-----------------------------|-----------------------------|
B|---------|-----------------------------|-----------------------------|-----------------------------|
G|---------|-8-----8-----8----8-----8----|-7-----7-----7----7-----7----|-8-----8-----8----8-----8----|
D|-9-------|-9-----9-----9----9-----9----|-7-----7-----7----7-----7----|-9-----9-----9----9-----9----|
A|---------|-9-----9-----9----9-----9----|-7-----7-----7----7-----7----|-9-----9-----9----9-----9----|
E|---------|-7-----7-----7----7-----7----|-7-----7-----7----7-----7----|-7-----7-----7----7-----7----|

E|-----------------------------|-----------------------------|-----------------------------|
B|-----------------------------|-----------------------------|-----------------------------|
G|-7-----7-----7----7-----7----|-8-----8-----8----8-----8----|-7-----7-----7----7-----7----|
D|-7-----7-----7----7-----7----|-9-----9-----9----9-----9----|-7-----7-----7----7-----7----|
A|-7-----7-----7----7-----7----|-9-----9-----9----9-----9----|-7-----7-----7----7-----7----|
E|-7-----7-----7----7-----7----|-7-----7-----7----7-----7----|-7-----7-----7----7-----7----|

E|-----------------------------|-----------------------------|---------|---------|------------------------------------|
B|-----------------------------|-----------------------------|---------|---------|------------------------------------|
G|-8-----8-----8----8-----8----|-7-----7-----7----7-----7----|---------|---------|------------------------------------|
D|-9-----9-----9----9-----9----|-7-----7-----7----7-----7----|-9-------|-9-------|-------------5--7----5----5---7-----|
A|-9-----9-----9----9-----9----|-7-----7-----7----7-----7----|-9-------|-9-------|-0-----3----------------------------|
E|-7-----7-----7----7-----7----|-7-----7-----7----7-----7----|-7-------|-7-------|------------------------------------|

E|---------|------------------------------------|---------|------------------------------------|
B|---------|------------------------------------|---------|------------------------------------|
G|---------|------------------------------------|---------|------------------------------------|
D|-7-------|-------------5--7----5--------------|---------|-------------5--7----5----5---7-----|
A|---------|-0-----3------------------5---7-----|-7-------|-0-----3----------------------------|
E|---------|------------------------------------|---------|------------------------------------|

E|---------|------------------------------------|---------|----------------------------------|
B|---------|------------------------------------|---------|----------------------------------|
G|---------|------------------------------------|---------|-2-----2--------------------------|
D|-7-------|-------------5--7----5--------------|---------|-0-----0---------0---1---0--------|
A|---------|-0-----3------------------5---7-----|-7-------|-------------3---------------3----|
E|---------|------------------------------------|---------|----------------------------------|

E|-------------------|------------------------------------|---------|------------------------------------|
B|-------------------|------------------------------------|---------|------------------------------------|
G|-------------------|------------------------------------|---------|------------------------------------|
D|-2-----------------|-------------5--7----5----5---7-----|-7-------|-------------5--7----5--------------|
A|-0-----------------|-0-----3----------------------------|---------|-0-----3------------------5---7-----|
E|---------5-----0---|------------------------------------|---------|------------------------------------|

E|---------|------------------------------------|---------|------------------------------------|
B|---------|------------------------------------|---------|------------------------------------|
G|---------|------------------------------------|---------|------------------------------------|
D|---------|-------------5--7----5----5---7-----|-7-------|-------------5--7----5--------------|
A|-7-------|-0-----3----------------------------|---------|-0-----3------------------5---7-----|
E|---------|------------------------------------|---------|------------------------------------|

E|---------|----------------------------------|---------|----------------------------------|
B|---------|----------------------------------|---------|----------------------------------|
G|---------|-2-----2--------------------------|---------|-2-----2--------------------------|
D|---------|-0-----0---------0---1---0--------|-2-------|-0-----0---------0---1---0--------|
A|-7-------|-------------3---------------3----|-0-------|-------------3---------------3----|
E|---------|----------------------------------|---------|----------------------------------|

E|---------|---------|---------|---------|---------|---------|---------|---------|-------------------------------------------|
B|---------|---------|---------|---------|---------|---------|---------|---------|-------------------------------------------|
G|---------|---------|-%-------|-%-------|-%-------|-%-------|-%-------|-%-------|-5----%---7----%---8----%---7-----12--%----|
D|-2-------|-2-------|-%-------|-%-------|-%-------|-%-------|-%-------|-%-------|-5----%---7----%---8----%---7-----12--%----|
A|-0-------|-0-------|---------|---------|---------|---------|---------|---------|-------------------------------------------|
E|---------|---------|---------|---------|---------|---------|---------|---------|-------------------------------------------|

E|-------------------------------------------|-------------------------------------------|
B|-------------------------------------------|-------------------------------------------|
G|-5----%---7----%---8----%---7-----12--%----|-5----%---7----%---8----%---7-----12--%----|
D|-5----%---7----%---8----%---7-----12--%----|-5----%---7----%---8----%---7-----12--%----|
A|-------------------------------------------|-------------------------------------------|
E|-------------------------------------------|-------------------------------------------|

E|-------------------------------------------|-------------------------------------------|
B|-------------------------------------------|-------------------------------------------|
G|------%---5----%---7----%-------------%----|------%---5----%---7----%-------------%----|
D|-7----%---5----%---7----%---7-----12--%----|-7----%---5----%---7----%---7-----12--%----|
A|-7--------------------------7-----12-------|-7--------------------------7-----12-------|
E|-------------------------------------------|-------------------------------------------|

E|-------------------------------------------|-------------------------------------------|
B|-------------------------------------------|-------------------------------------------|
G|------%---5----%---7----%-------------%----|-5----%---7----%---8----%---7-----12--%----|
D|-7----%---5----%---7----%---7-----12--%----|-5----%---7----%---8----%---7-----12--%----|
A|-7--------------------------7-----12-------|-------------------------------------------|
E|-------------------------------------------|-------------------------------------------|

E|-------------------------------------------|----------------------------------------|
B|-------------------------------------------|----------------------------------------|
G|-5----%---7----%---8----%---7-----12--%----|-5----%---7----%---8----%---7-----7-----|
D|-5----%---7----%---8----%---7-----12--%----|-5----%---7----%---8----%---------------|
A|-------------------------------------------|----------------------------------------|
E|-------------------------------------------|----------------------------------------|

E|--------------------------------------------------------|-----------------------------------------------------|
B|--------------------------------------------------------|-----------------------------------------------------|
G|-7---9---7---5------------------------------------------|--------------------------------%----%-----------5---|
D|-----------------7---5--------5---7---5----5------------|--------------------------------%----%---5---7-------|
A|-------------------------7---------------------7---5----|-5---7---5-----------------7-------------------------|
E|--------------------------------------------------------|-------------8----5---3----5-------------------------|

E|-----------------------------------------------------------|----------------------------------------------|
B|-----------------------------------------------------------|----------------------------------------------|
G|-7---8---7---5---------------------------------------------|--------------------------------%---------5---|
D|-----------------7---5--------5---7---5-------5------------|--------------------------------%-----7-------|
A|-------------------------7----------------7-------7---5----|-3---5---3---3-------------7------------------|
E|-----------------------------------------------------------|------------------5---3----5------------------|

E|--------------------------------------------------|--------------------------------------------------|
B|--------------------------------------------------|--------------------------------------------------|
G|-7--------5---8--------5---9----9----9--------5---|-7--------5---8--------5---9----9----9--------5---|
D|------7------------7----------------------7-------|------7------------7----------------------7-------|
A|--------------------------------------------------|--------------------------------------------------|
E|--------------------------------------------------|--------------------------------------------------|

E|--------------------------------------------------|--------------------------------------------------------|
B|--------------------------------------------------|-------------------------------------------5---8---5----|
G|-7--------5---8--------5---9----9----9--------5---|-7---8---7---5----------------5---7---5-----------------|
D|------7------------7----------------------7-------|-----------------7---5---7------------------------------|
A|--------------------------------------------------|--------------------------------------------------------|
E|--------------------------------------------------|--------------------------------------------------------|

E|-5---8---5----5--------------------------------------|------------------------------------------|
B|------------------8---5----5-------------------------|------------------------5----8---5---8----|
G|-------------------------------7---5----4---5---4----|-4------5---4---5---7---------------------|
D|-----------------------------------------------------|------------------------------------------|
A|-----------------------------------------------------|------------------------------------------|
E|-----------------------------------------------------|------------------------------------------|

E|-5---8---5----5-----------------------------------------|--------------5---8---5----5-----17---8---5---|
B|------------------8---5----5----------------------------|-5---8---5------------------------------------|
G|-------------------------------7---5----5---7---5---7---|----------------------------------------------|
D|--------------------------------------------------------|----------------------------------------------|
A|--------------------------------------------------------|----------------------------------------------|
E|--------------------------------------------------------|----------------------------------------------|

E|-5---8---5-------------------------------------------|-----------------------------------------------------|
B|--------------8---5---8------------------------------|----------------------------------------5---8---5----|
G|---------------------------7---5---7----5---7---5----|-5-------------------------5---7---5-----------------|
D|-----------------------------------------------------|-----7---5----5---7---5------------------------------|
A|-----------------------------------------------------|-----------------------------------------------------|
E|-----------------------------------------------------|-----------------------------------------------------|

E|-5---8---5-------------------------------------------|-------------------------------------------|
B|--------------5---8---5------------------------------|-------------------------------------------|
G|---------------------------5---7---5----5---7---5----|-5-----------------------------------------|
D|-----------------------------------------------------|-----5---7----5---7---5----5-----17--5-----|
A|-----------------------------------------------------|-------------------------------------------|
E|-----------------------------------------------------|-------------------------------------------|

E|--------------------------------------|--------------------------------------|-------------------------------------------|
B|--------------------------------------|--------------------------------------|-------------------------------------------|
G|--------------------------------------|--------------------------------------|-5----%---7----%---8----%---7-----12--%----|
D|-7-----7-----7-----7-----7---5--------|-7-----7-----7-----7-----7---5--------|-5----%---7----%---8----%---7-----12--%----|
A|---------------------------------7----|---------------------------------7----|-------------------------------------------|
E|--------------------------------------|--------------------------------------|-------------------------------------------|

E|-------------------------------------------|-------------------------------------------|
B|-------------------------------------------|-------------------------------------------|
G|-5----%---7----%---8----%---7-----12--%----|-5----%---7----%---8----%---7-----12--%----|
D|-5----%---7----%---8----%---7-----12--%----|-5----%---7----%---8----%---7-----12--%----|
A|-------------------------------------------|-------------------------------------------|
E|-------------------------------------------|-------------------------------------------|

E|-------------------------------------------|-------------------------------------------|
B|-------------------------------------------|-------------------------------------------|
G|------%---5----%---7----%-------------%----|------%---5----%---7----%-------------%----|
D|-7----%---5----%---7----%---7-----12--%----|-7----%---5----%---7----%---7-----12--%----|
A|-7--------------------------7-----12-------|-7--------------------------7-----12-------|
E|-------------------------------------------|-------------------------------------------|

E|-------------------------------------------|-------------------------------------------|
B|-------------------------------------------|-------------------------------------------|
G|------%---5----%---7----%-------------%----|-5----%---7----%---8----%---7-----12--%----|
D|-7----%---5----%---7----%---7-----12--%----|-5----%---7----%---8----%---7-----12--%----|
A|-7--------------------------7-----12-------|-------------------------------------------|
E|-------------------------------------------|-------------------------------------------|

E|-------------------------------------------|----------------------------------------|
B|-------------------------------------------|----------------------------------------|
G|-5----%---7----%---8----%---7-----12--%----|-5----%---7----%---8----%---7-----7-----|
D|-5----%---7----%---8----%---7-----12--%----|-5----%---7----%---8----%---------------|
A|-------------------------------------------|----------------------------------------|
E|-------------------------------------------|----------------------------------------|

E|---------|-----------------------------------------------------------|-------------------------------------------|
B|---------|-----------------------------------------------------------|-------------------------------------------|
G|-7-------|-7---8---7---5---------------------------------------------|--------------------------------%----%-----|
D|---------|-----------------7---5--------5---7---5-------5------------|--------------------------------%----%-----|
A|---------|-------------------------7----------------7-------7---5----|-3---5---3---3-------------7---------------|
E|---------|-----------------------------------------------------------|------------------5---3----5---------------|
Black Sabbath - Behind the Wall of Sleep
Black Sabbath - Behind the Wall of Sleep.gp3