Black Sabbath - Black Sabbath (3)

Black Sabbath



Title: Black Sabbath
Album: Black Sabbath
Artist: Black Sabbath
Author: Words and Music by Frank Iommi, John Osbourne, William Ward, and Terence Butler

Track 1: Tony Iommi Guitar 1
E|---------|---------|---------|---------|---------|---------|---------|---------|---------|
B|---------|---------|---------|---------|---------|---------|---------|---------|---------|
G|-%-------|-%-------|-%-------|-%-------|-%-------|-%-------|-%-------|-%-------|-%-------|
D|-%-------|-%-------|-%-------|-%-------|-%-------|-%-------|-%-------|-%-------|-%-------|
A|---------|---------|---------|---------|---------|---------|---------|---------|---------|
E|---------|---------|---------|---------|---------|---------|---------|---------|---------|

E|---------|---------------|---------|---------------|-------------------|---------------|
B|---------|---------------|---------|---------------|-------------------|---------------|
G|-%-------|---------------|---------|---------------|-------------------|---------------|
D|-%-------|-5------5------|---------|-5------5------|-------------------|-5------5------|
A|---------|-5-------------|-4-------|-5-------------|-4-------4----8----|-5-------------|
E|---------|-3-------------|---------|-3-------------|-------------------|-3-------------|

E|-------------------|---------------|---------------|---------------|---------|---------------|
B|-------------------|---------------|---------------|---------------|---------|---------------|
G|-------------------|---------------|---------%-----|---------------|---------|---------------|
D|-------------------|-5------5------|---------%-----|--------5------|---------|--------5------|
A|-4-------4---12----|-5-------------|-4-------------|---------------|-4-------|---------------|
E|-------------------|-3-------------|---------------|-3-------------|---------|-3-------------|

E|---------|---------------|---------|---------------|---------|---------------|---------|
B|---------|---------------|---------|---------------|---------|---------------|---------|
G|---------|---------------|---------|---------------|---------|---------------|---------|
D|---------|--------5------|---------|--------5------|---------|--------5------|---------|
A|-4-------|---------------|-4-------|---------------|-4-------|---------------|-4-------|
E|---------|-3-------------|---------|-3-------------|---------|-3-------------|---------|

E|---------------|---------|---------------|---------|---------------|---------|---------------|
B|---------------|---------|---------------|---------|---------------|---------|---------------|
G|---------------|---------|---------------|---------|---------------|---------|---------------|
D|--------5------|---------|--------5------|---------|--------5------|---------|--------5------|
A|---------------|-4-------|---------------|-4-------|---------------|-4-------|---------------|
E|-3-------------|---------|-3-------------|---------|-3-------------|---------|-3-------------|

E|---------|---------------|---------|---------------|---------|---------------|-------------------|
B|---------|---------------|---------|---------------|---------|---------------|-------------------|
G|---------|---------------|---------|---------------|---------|---------------|-------------------|
D|---------|--------5------|---------|-5------5------|---------|-5------5------|-------------------|
A|-4-------|---------------|-4-------|-5-------------|-4-------|-5-------------|-4-------4----8----|
E|---------|-3-------------|---------|-3-------------|---------|-3-------------|-------------------|

E|---------------|-------------------|---------------|---------------|---------------|
B|---------------|-------------------|---------------|---------------|---------------|
G|---------------|-------------------|---------------|---------%-----|---------------|
D|-5------5------|-------------------|-5------5------|---------%-----|--------5------|
A|-5-------------|-4-------4---12----|-5-------------|-4-------------|---------------|
E|-3-------------|-------------------|-3-------------|---------------|-3-------------|

E|---------|---------------|---------|---------------|---------|---------------|---------|
B|---------|---------------|---------|---------------|---------|---------------|---------|
G|---------|---------------|---------|---------------|---------|---------------|---------|
D|---------|--------5------|---------|--------5------|---------|--------5------|---------|
A|-4-------|---------------|-4-------|---------------|-4-------|---------------|-4-------|
E|---------|-3-------------|---------|-3-------------|---------|-3-------------|---------|

E|---------------|---------|---------------|---------|---------------|---------|---------------|
B|---------------|---------|---------------|---------|---------------|---------|---------------|
G|---------------|---------|---------------|---------|---------------|---------|---------------|
D|--------5------|---------|--------5------|---------|--------5------|---------|--------5------|
A|---------------|-4-------|---------------|-4-------|---------------|-4-------|---------------|
E|-3-------------|---------|-3-------------|---------|-3-------------|---------|-3-------------|

E|---------|---------------|---------|---------------|---------|---------------|---------|
B|---------|---------------|---------|---------------|---------|---------------|---------|
G|---------|---------------|---------|---------------|---------|---------------|---------|
D|---------|--------5------|---------|--------5------|---------|-5------5------|---------|
A|-4-------|---------------|-4-------|---------------|-4-------|-5-------------|-4-------|
E|---------|-3-------------|---------|-3-------------|---------|-3-------------|---------|

E|---------------|-------------------|---------------|-------------------|---------------|
B|---------------|-------------------|---------------|-------------------|---------------|
G|---------------|-------------------|---------------|-------------------|---------------|
D|-5------5------|-------------------|-5------5------|-------------------|-5------5------|
A|-5-------------|-4-------4----8----|-5-------------|-4-------4---12----|-5-------------|
E|-3-------------|-------------------|-3-------------|-------------------|-3-------------|

E|---------------|---------|---------|-------------------------------------------------------------|
B|---------------|---------|---------|-------------------------------------------------------------|
G|---------%-----|---------|---------|-------------------------------------------------------------|
D|---------%-----|-5-------|-5-------|-------------------------------------------------------------|
A|-4-------------|-5-------|-5-------|---------------------3----5----6----3----5---------3----5----|
E|---------------|-3-------|-3-------|-3----3----3----6-----------------------------6--------------|

E|-------------------------------------------------------------|-------------------------------------------------------------|
B|-------------------------------------------------------------|-------------------------------------------------------------|
G|-------------------------------------------------------------|-------------------------------------------------------------|
D|-------------------------------------------------------------|-------------------------------------------------------------|
A|---------------------3----5----6----3----5---------3----5----|---------------------3----5----6----3----5---------3----5----|
E|-3----3----3----6-----------------------------6--------------|-3----3----3----6-----------------------------6--------------|

E|-------------------------------------------------------------|-------------------------------------------------------------|
B|-------------------------------------------------------------|-------------------------------------------------------------|
G|-------------------------------------------------------------|-------------------------------------------------------------|
D|-------------------------------------------------------------|-------------------------------------------------------------|
A|---------------------3----5----6----3----5---------3----5----|---------------------3----5----6----3----5---------3----5----|
E|-3----3----3----6-----------------------------6--------------|-3----3----3----6-----------------------------6--------------|

E|-------------------------------------------------------------|-------------------------------------------------------------|
B|-------------------------------------------------------------|-------------------------------------------------------------|
G|-------------------------------------------------------------|-------------------------------------------------------------|
D|-------------------------------------------------------------|-------------------------------------------------------------|
A|---------------------3----5----6----3----5---------3----5----|---------------------3----5----6----3----5---------3----5----|
E|-3----3----3----6-----------------------------6--------------|-3----3----3----6-----------------------------6--------------|

E|-------------------------------------------------------------|-------------------------------------------------------------|
B|-------------------------------------------------------------|-------------------------------------------------------------|
G|-------------------------------------------------------------|-------------------------------------------------------------|
D|-------------------------------------------------------------|-------------------------------------------------------------|
A|---------------------3----5----6----3----5---------3----5----|---------------------3----5----6----3----5---------3----5----|
E|-3----3----3----6-----------------------------6--------------|-3----3----3----6-----------------------------6--------------|

E|-------------------------------------------------------------|-------------------------------------------------------------|
B|-------------------------------------------------------------|-------------------------------------------------------------|
G|-------------------------------------------------------------|-------------------------------------------------------------|
D|-------------------------------------------------------------|-------------------------------------------------------------|
A|---------------------3----5----6----3----5---------3----5----|---------------------3----5----6----3----5---------3----5----|
E|-3----3----3----6-----------------------------6--------------|-3----3----3----6-----------------------------6--------------|

E|-------------------------------------------------------------|-------------------------------------------------------------|
B|-------------------------------------------------------------|-------------------------------------------------------------|
G|-------------------------------------------------------------|-------------------------------------------------------------|
D|-------------------------------------------------------------|-------------------------------------------------------------|
A|---------------------3----5----6----3----5---------3----5----|---------------------3----5----6----3----5---------3----5----|
E|-3----3----3----6-----------------------------6--------------|-3----3----3----6-----------------------------6--------------|

E|-------------------------------------------------------------|-------------------------------------------------------------|
B|-------------------------------------------------------------|-------------------------------------------------------------|
G|-------------------------------------------------------------|-------------------------------------------------------------|
D|-------------------------------------------------------------|-------------------------------------------------------------|
A|---------------------3----5----6----3----5---------3----5----|---------------------3----5----6----3----5---------3----5----|
E|-3----3----3----6-----------------------------6--------------|-3----3----3----6-----------------------------6--------------|

E|-------------------------------------------------------------|-------------------------------------------------------------|
B|-------------------------------------------------------------|-------------------------------------------------------------|
G|-------------------------------------------------------------|-------------------------------------------------------------|
D|-------------------------------------------------------------|-------------------------------------------------------------|
A|---------------------3----5----6----3----5---------3----5----|---------------------3----5----6----3----5---------3----5----|
E|-3----3----3----6-----------------------------6--------------|-3----3----3----6-----------------------------6--------------|

E|-------------------------------------------------------------|-------------------------------------------------------------|
B|-------------------------------------------------------------|-------------------------------------------------------------|
G|-------------------------------------------------------------|-------------------------------------------------------------|
D|-------------------------------------------------------------|-------------------------------------------------------------|
A|---------------------3----5----6----3----5---------3----5----|---------------------3----5----6----3----5---------3----5----|
E|-3----3----3----6-----------------------------6--------------|-3----3----3----6-----------------------------6--------------|

E|-------------------------------------------------------------|---------|---------|
B|-------------------------------------------------------------|---------|-3-------|
G|-------------------------------------------------------------|---------|-3-------|
D|-------------------------------------------------------------|-5-------|-3-------|
A|---------------------3----5----6----3----5----5----5----5----|-5-------|---------|
E|-3----3----3----6-----------------------------3----3----3----|-3-------|---------|

E|---------|------------------------|--------------------|-------------------------|
B|---------|-3----------------------|--------------------|-------------------------|
G|---------|-3----------------------|---------10---------|-------------------------|
D|-5-------|-3-------5----3---------|-5-------------5----|-3------3-----3----5-----|
A|-5-------|-------------------5----|--------------------|-------------------------|
E|-3-------|------------------------|--------------------|-------------------------|

E|---------------|-------------------3-----|-------------------------|-----------------15---------------|
B|---------3-----|-3-----------3-----3-----|-3-----6-----8-----------|------------15--------18----X-----|
G|-3-------5-----|-5------5----5-----------|-5-----8-----10----12----|-12----18-------------------X-----|
D|---------------|-------------------------|-------------------------|----------------------------------|
A|---------------|-------------------------|-------------------------|----------------------------------|
E|---------------|-------------------------|-------------------------|----------------------------------|

E|------------------------18----|-18----18----15---18---15--------18---15--------|-18----15--18--15------------15---15---------|
B|-18----18----18----15---------|----------------------------18-------------18---|-------------------18---18-------------18----|
G|------------------------------|------------------------------------------------|---------------------------------------------|
D|------------------------------|------------------------------------------------|---------------------------------------------|
A|------------------------------|------------------------------------------------|---------------------------------------------|
E|------------------------------|------------------------------------------------|---------------------------------------------|

E|-15-----------------------15-------------15-------------15---|-----------15-------------15-------------15-------------15---|
B|------18---15--------15-------------15-------------15--------|------15-------------15-------------15-------------15--------|
G|----------------17-------------17-------------17-------------|-17-------------17-------------17-------------17-------------|
D|-------------------------------------------------------------|-------------------------------------------------------------|
A|-------------------------------------------------------------|-------------------------------------------------------------|
E|-------------------------------------------------------------|-------------------------------------------------------------|

E|------------------15------------------|----------------------------------------18---|
B|-------------15-------------15---18---|-18----18---------18---18----18--------------|
G|-17-----17-------------17-------------|------------15--------------------15---------|
D|--------------------------------------|---------------------------------------------|
A|--------------------------------------|---------------------------------------------|
E|--------------------------------------|---------------------------------------------|

E|-18----18---15--18--15-------18----15--18--15-------|-15--18--15------18---15--------18----18----|
B|------------------------18---------------------18---|-------------18------------18---------------|
G|----------------------------------------------------|--------------------------------------------|
D|----------------------------------------------------|--------------------------------------------|
A|----------------------------------------------------|--------------------------------------------|
E|----------------------------------------------------|--------------------------------------------|

E|-18----18----18----18----|-18---15--------------15-------------------------|-----------15---------------------------------------|
B|-------------------------|-----------18---18----18----18---15--------------|------15--------18---15-----------------------------|
G|-------------------------|--------------------------------------17---15----|-17-----------------------17---15-------------------|
D|-------------------------|-------------------------------------------------|-------------------------------------17---15---17---|
A|-------------------------|-------------------------------------------------|----------------------------------------------------|
E|-------------------------|-------------------------------------------------|----------------------------------------------------|

E|----------------------15---------15--------------|---------------------------------|
B|----------------15----15---15----15---15----18---|-18----18----20---20-------------|
G|-----------15---17---------17---------17---------|-----------------------%---------|
D|-15---17-----------------------------------------|-----------------------%---------|
A|-------------------------------------------------|----------------------------5----|
E|-------------------------------------------------|----------------------------3----|

E|--------------------|--------------------|--------------------|--------------------|
B|--------------------|-3-------3----------|--------------------|-3-------3----------|
G|--------------------|-3-------3----------|--------------------|-3-------3----------|
D|-5-------5----------|-3-------3----------|-5-------5----------|-3-------3----------|
A|-5-------5----------|---------------5----|-5-------5----------|---------------5----|
E|-3-------3-----3----|---------------3----|-3-------3-----3----|---------------3----|

E|--------------------|--------------------|--------------------|---------|-------------------------------------------|
B|--------------------|-3-------3----------|--------------------|-3-------|-------------------------------------------|
G|--------------------|-3-------3----------|--------------------|-3-------|-------------------------------------------|
D|-5-------5----------|-3-------3----------|-5-------5----------|-3-------|-5-----5----5----5----5-----5----5----5----|
A|-5-------5----------|---------------5----|-5-------5----------|---------|-5-----5----5----5----5-----5----5----5----|
E|-3-------3-----3----|---------------3----|-3-------3-----3----|---------|-3-----3----3----3----3-----3----3----3----|

E|-------------------------------------------|--------------------|-----------------------------|
B|-3-----3----3----3----3-----3----3----3----|--------------------|-----------------------------|
G|-3-----3----3----3----3-----3----3----3----|-------%-----%------|----------------------%------|
D|-3-----3----3----3----3-----3----3----3----|-5-----%-----%------|-5----5----5----5-----%------|
A|-------------------------------------------|-5------------------|-5----5----5----5------------|
E|-------------------------------------------|-3------------------|-3----3----3----3------------|
Black Sabbath - Black Sabbath (3)
Black Sabbath - Black Sabbath (3).gp4