Black Sabbath - Black Sabbath - Orchid

Black Sabbath



Title: Orchid
Album: Master Of Reality
Artist: Black Sabbath
Author: 

Track 1: Guitare
E|---------------------------------|-10---------8---------10--------5----|-5-----5----------5----------5---------5----5----|
B|-6----------8---------10---------|-------------------------------------|-------------------------------------------------|
G|-------%---------%----------%----|-------%---------%---------%---------|-------------%----------%---------%--------------|
D|-------%---------%----------%----|-8-----%----7----%----8----%----3----|-3-----3-----%----3-----%----3----%----3----3----|
A|-5----------7---------8----------|-------------------------------------|-------------------------------------------------|
E|---------------------------------|-------------------------------------|-------------------------------------------------|

E|------0--------------0--------------0--------------0---------|------0--------------0--------------0------------------------|
B|-----------1--------------1--------------1--------------1----|-----------1--------------1--------------1-------------------|
G|-------------------------------------------------------------|---------------------------------------------------0---------|
D|-------------------------------------------------------------|--------------------------------------------------------0----|
A|-3--------------3--------------3--------------3--------------|-3--------------3--------------3--------------3--------------|
E|-------------------------------------------------------------|-------------------------------------------------------------|

E|------1--------------1--------------1--------------1---------|------1--------------1--------------1------------------------|
B|-----------3--------------3--------------3--------------3----|-----------3--------------3--------------3-------------------|
G|-------------------------------------------------------------|---------------------------------------------------0---------|
D|-0--------------0--------------0--------------0--------------|-0--------------0--------------0--------------0---------0----|
A|-------------------------------------------------------------|-------------------------------------------------------------|
E|-------------------------------------------------------------|-------------------------------------------------------------|

E|------1--------------1--------------1--------------1---------|------1--------------1--------------1------------------------|
B|-----------0--------------0--------------0--------------0----|-----------0--------------0--------------0-------------------|
G|-------------------------------------------------------------|---------------------------------------------------0---------|
D|-------------------------------------------------------------|--------------------------------------------------------0----|
A|-------------------------------------------------------------|-------------------------------------------------------------|
E|-3--------------3--------------3--------------3--------------|-3--------------3--------------3--------------3--------------|

E|------0--------------0--------------0--------------0---------|------0--------------0--------------0------------------------|
B|-----------1--------------1--------------1--------------1----|-----------1--------------1--------------1-------------------|
G|-------------------------------------------------------------|---------------------------------------------------0---------|
D|-------------------------------------------------------------|--------------------------------------------------------0----|
A|-3--------------3--------------3--------------3--------------|-3--------------3--------------3--------------3--------------|
E|-------------------------------------------------------------|-------------------------------------------------------------|

E|------1--------------1--------------1--------------1---------|------1--------------1--------------1--------------1---------|
B|-----------3--------------3--------------3--------------3----|-----------0--------------0--------------0--------------0----|
G|-------------------------------------------------------------|-------------------------------------------------------------|
D|-0--------------0--------------0--------------0--------------|-------------------------------------------------------------|
A|-------------------------------------------------------------|-------------------------------------------------------------|
E|-------------------------------------------------------------|-3--------------3--------------3--------------3--------------|

E|------0--------------0--------------0--------------0---------|------0--------------0--------------0--------------5---------|
B|-----------1--------------1--------------1--------------1----|-----------1--------------1--------------1-------------------|
G|-------------------------------------------------------------|--------------------------------------------------------5----|
D|-------------------------------------------------------------|----------------------------------------------3--------------|
A|-3--------------3--------------3--------------3--------------|-3--------------3--------------3-------------------3---------|
E|-------------------------------------------------------------|-------------------------------------------------------------|

E|------5--------------5--------------5--------------5---------|------8--------------7--------------5---------|
B|-------------------------------------------------------------|----------------------------------------------|
G|-----------5--------------5--------------5--------------5----|-----------9--------------4--------------5----|
D|-3--------------3--------------3--------------3--------------|-7--------------5--------------3--------------|
A|-------------------------------------------------------------|----------------------------------------------|
E|-------------------------------------------------------------|----------------------------------------------|

E|------0--------------0--------------0--------------0---------|------0--------------0--------------0------------------------|
B|-----------1--------------1--------------1--------------1----|-----------1--------------1--------------1-------------------|
G|-------------------------------------------------------------|---------------------------------------------------0---------|
D|-------------------------------------------------------------|--------------------------------------------------------0----|
A|-3--------------3--------------3--------------3--------------|-3--------------3--------------3--------------3--------------|
E|-------------------------------------------------------------|-------------------------------------------------------------|

E|------3--------------3--------------3--------------3---------|------3--------------3--------------1--------------1---------|
B|-----------3--------------3--------------3--------------3----|-----------3--------------3--------------3--------------3----|
G|-0--------------0--------------0--------------0--------------|-0--------------0--------------------------------------------|
D|-------------------------------------------------------------|-------------------------------3--------------2--------------|
A|-------------------------------------------------------------|-------------------------------------------------------------|
E|-------------------------------------------------------------|-------------------------------------------------------------|

E|------1--------------1--------------1--------------1---------|------1--------------1--------------1---------------|
B|-----------3--------------3--------------3--------------3----|-----------3--------------3--------------3----------|
G|-------------------------------------------------------------|----------------------------------------------%-----|
D|-3--------------3--------------3--------------3--------------|-3--------------3--------------3--------------%-----|
A|-------------------------------------------------------------|----------------------------------------------------|
E|-------------------------------------------------------------|----------------------------------------------------|

E|------0--------------0--------------0--------------0---------|------0--------------0--------------0------------------------|
B|-----------1--------------1--------------1--------------1----|-----------1--------------1--------------1-------------------|
G|-------------------------------------------------------------|---------------------------------------------------0---------|
D|-------------------------------------------------------------|--------------------------------------------------------0----|
A|-3--------------3--------------3--------------3--------------|-3--------------3--------------3--------------3--------------|
E|-------------------------------------------------------------|-------------------------------------------------------------|

E|------1--------------1--------------1--------------1---------|------1--------------1--------------1--------------1---------|
B|-----------3--------------3--------------3--------------3----|-----------3--------------3--------------3--------------3----|
G|-------------------------------------------------------------|-------------------------------------------------------------|
D|-0--------------0--------------0--------------0--------------|-0--------------0--------------0--------------0--------------|
A|-------------------------------------------------------------|-------------------------------------------------------------|
E|-------------------------------------------------------------|-------------------------------------------------------------|

E|------1--------------1--------------1--------------1---------|------1--------------1--------------1--------------1---------|
B|-----------0--------------0--------------0--------------0----|-----------0--------------0--------------0--------------0----|
G|-------------------------------------------------------------|-------------------------------------------------------------|
D|-------------------------------------------------------------|-------------------------------------------------------------|
A|-------------------------------------------------------------|-------------------------------------------------------------|
E|-3--------------3--------------3--------------3--------------|-3--------------3--------------3--------------3--------------|

E|------0--------------0--------------0--------------0---------|------1--------------1--------------1--------------1---------|
B|-----------1--------------1--------------1--------------1----|-----------3--------------3--------------3--------------3----|
G|-------------------------------------------------------------|-------------------------------------------------------------|
D|-------------------------------------------------------------|-0--------------0--------------0--------------0--------------|
A|-3--------------3--------------3--------------3--------------|-------------------------------------------------------------|
E|-------------------------------------------------------------|-------------------------------------------------------------|

E|------1--------------1--------------1--------------1---------|------1--------------1--------------1--------------1---------|
B|-----------3--------------3--------------3--------------3----|-----------0--------------0--------------0--------------0----|
G|-------------------------------------------------------------|-------------------------------------------------------------|
D|-0--------------0--------------0--------------0--------------|-------------------------------------------------------------|
A|-------------------------------------------------------------|-------------------------------------------------------------|
E|-------------------------------------------------------------|-3--------------3--------------3--------------3--------------|

E|------1--------------1--------------1--------------1---------|-------0-----------------|
B|-----------0--------------0--------------0--------------0----|-------------1-----------|
G|-------------------------------------------------------------|-------------------0-----|
D|-------------------------------------------------------------|-------------------------|
A|-------------------------------------------------------------|-3-----------------------|
E|-3--------------3--------------3--------------3--------------|-------------------------|

E|-------1-----------------|-------1-----------------|---------------------0------|
B|-------------3-----------|-------------0-----------|----------------1----1------|
G|-------------------2-----|-------------------0-----|-----------0---------0------|
D|-0-----------------------|-------------------------|------2--------------2------|
A|-------------------------|-------------------------|-3-------------------3------|
E|-------------------------|-3-----------------------|----------------------------|

E|---------|
B|---------|
G|-%-------|
D|-%-------|
A|---------|
E|---------|
Black Sabbath - Black Sabbath - Orchid
Black Sabbath - Black Sabbath - Orchid.gp3