Black Sabbath - Children Of the Grave (Intro)

Black Sabbath - Children Of the Grave (Intro)

Black Sabbath



Title: Children Of the Grave (Intro)
Album: 
Artist: 
Author: Black Sabbath

Track 1: Guitar 1
C#|-0-----0-----0-----0-----0----0----0----0----0-----0-----|-0-----0-----0-----0-----0----0----0----0----0-----0-----|
G#|---------------------------------------------------------|---------------------------------------------------------|
 E|---------------------------------------------------------|-0-----2-----4-----2-----0----2----0---------------------|
 B|-2-----4-----5-----4-----2----4----5----4----2-----2-----|----------------------------------------4----2-----2-----|
F#|---------------------------------------------------------|---------------------------------------------------------|
C#|---------------------------------------------------------|---------------------------------------------------------|

C#|-0-----0-----0-----0-----0----0----0----0----0-----0---------|-0-----0-----0-----0-----0----0----0----0----0-----0-----|
G#|-------------------------------------------------------------|---------------------------------------------------------|
 E|-4-----2-----0-----------------------------------------------|---------------------------------------------------4-----|
 B|-------------------4-----2----4----5----4----2-----2----0----|-2-----4-----5-----4-----2----4----5----4----2-----------|
F#|-------------------------------------------------------------|---------------------------------------------------------|
C#|-------------------------------------------------------------|---------------------------------------------------------|

C#|-0-----0-----0-----0-----0----0----0----0----0-----0---------|-0-----0-----0-----0-----0----0----0----0----0-----0---------|
G#|-------------------3-----------------------------------------|-------------------------------------------------------------|
 E|-9-----7-----4-----------2----4------------------------------|-------------------------------------------------------------|
 B|-----------------------------------5----4----2-----2----0----|-2-----4-----5-----4-----2----4----5----4----2-----2----0----|
F#|-------------------------------------------------------------|-------------------------------------------------------------|
C#|-------------------------------------------------------------|-------------------------------------------------------------|

C#|-3-----2-----0-----0-----0---------0---------0-----0-----|-7-----5-----3-----0-----0----0----0----0----0-------|
G#|---------------------------------------------------------|-----------------------------------------------------|
 E|---------------------------------------------------------|-----------------------------------------------------|
 B|-0-----------------2-----2----4----5----4----2-----2-----|-5-----5-----2-----2-----2----4----5----4----2-------|
F#|---------------------------------------------------------|-----------------------------------------------------|
C#|---------------------------------------------------------|-----------------------------------------------------|
Black Sabbath - Children Of the Grave (Intro)
Black Sabbath - Children Of the Grave (Intro).gp3