Black Sabbath - Children of the sea (intro + main riff)

Black Sabbath



Title: Children of the sea, intro
Album: Heaven And Hell
Artist: Black Sabbath
Author: Iommi/Dio/Bulter/Appice

Track 1: Traccia 1
E|----------------1----1-------------------|-3--------------3----3---------------|----------------1----1----------------------|
B|-----------3--------------3--------------|------0-------------------0----------|-----------3--------------3-----------------|
G|------2------------------------2---------|-----------2-------------------2-----|------2------------------------2------------|
D|-0----------------------------------0----|-------------------------------------|-0------------------------------------------|
A|-----------------------------------------|-------------------------------------|------------------------------------0---2---|
E|-----------------------------------------|-------------------------------------|--------------------------------------------|

E|-----------------------------------------|-1-------|-----------------------------|
B|--------------------------0--------------|-3-------|-----------------------------|
G|-----------0-----------------------------|-2-------|-2-----------2---------------|
D|------2--------------0-------------------|-0-------|-2------2----2---------------|
A|-3--------------2--------------2----2----|---------|-0------0----0-----0----0----|
E|-----------------------------------------|---------|-----------------------------|

E|---------------------------------|-----------------------------|-3------2------|
B|---------------------------------|-----------------------------|-3------3------|
G|------4----5---------4----5------|-2-----------2---------------|-0------2------|
D|------4----5---------4----5------|-2------2----2---------------|-0------0------|
A|-0--------------0----------------|-0------0----0-----0----0----|---------------|
E|---------------------------------|-----------------------------|---------------|
Black Sabbath - Children of the sea (intro + main riff)
Black Sabbath - Children of the sea (intro + main riff).gp3