Black Sabbath - Country Girl

Black Sabbath - Country Girl

Black Sabbath



Title: Country Girl
Album: Mob Rules
Artist: Black Sabbath
Author: 

Track 1: Distortion Guitar
D#|-------------------------------------------------------|-------------------------|
A#|-------------------------------------------------------|-------------------------|
F#|-------------------------------------------------------|-------------------------|
C#|-7---9---9---9---9----7---9---12---12---9--------------|-5-----4-----------------|
G#|-5---7---7---7---7----5---7---10---10---7----5--7--5---|-3-----2-----5-----4-----|
D#|-------------------------------------------------------|-------------3-----2-----|

D#|-----------------------------------------------------|---------------------------------|
A#|-----------------------------------------------------|---------------------------------|
F#|----------------------------------------%------------|---------------------------------|
C#|----------------------------------------%------------|-----------------------12---11---|
G#|-7---9---9---9---9----7---9---10---9---------7---9---|-10----9-----10---9----10---9----|
D#|-5---7---7---7---7----5---7---8----7---------5---7---|-8-----7-----8----7--------------|

D#|-------------------------------------------------------|-------------------------|
A#|-------------------------------------------------------|-------------------------|
F#|-------------------------------------------------------|-------------------------|
C#|-7---9---9---9---9----7---9---12---12---9--------------|-5-----4-----------------|
G#|-5---7---7---7---7----5---7---10---10---7----5--7--5---|-3-----2-----5-----4-----|
D#|-------------------------------------------------------|-------------3-----2-----|

D#|---------|---------|---------|---------|---------|-------------------------------------------------------|
A#|---------|---------|---------|---------|---------|-------------------------------------------------------|
F#|-%-------|-%-------|-%-------|-%-------|-%-------|-------------------------------------------------------|
C#|-%-------|-%-------|-%-------|-%-------|-%-------|-7---9---9---9---9----7---9---12---12---9--------------|
G#|---------|---------|---------|---------|---------|-5---7---7---7---7----5---7---10---10---7----5--7--5---|
D#|---------|---------|---------|---------|---------|-------------------------------------------------------|

D#|-------------------------|-------------------------------------------------------|
A#|-------------------------|-------------------------------------------------------|
F#|-------------------------|-------------------------------------------------------|
C#|-5-----4-----------------|-7---9---9---9---9----7---9---12---12---9--------------|
G#|-3-----2-----5-----4-----|-5---7---7---7---7----5---7---10---10---7----5--7--5---|
D#|-------------3-----2-----|-------------------------------------------------------|

D#|-------------------------|-------------------------------------------------------|
A#|-------------------------|-------------------------------------------------------|
F#|-------------------------|-------------------------------------------------------|
C#|-5-----4-----------------|-7---9---9---9---9----7---9---12---12---9--------------|
G#|-3-----2-----5-----4-----|-5---7---7---7---7----5---7---10---10---7----5--7--5---|
D#|-------------3-----2-----|-------------------------------------------------------|

D#|-------------------------|-------------------------------------------------------|
A#|-------------------------|-------------------------------------------------------|
F#|-------------------------|-------------------------------------------------------|
C#|-5-----4-----------------|-7---9---9---9---9----7---9---12---12---9--------------|
G#|-3-----2-----5-----4-----|-5---7---7---7---7----5---7---10---10---7----5--7--5---|
D#|-------------3-----2-----|-------------------------------------------------------|

D#|-------------------------|-----------------------------------------------------|
A#|-------------------------|-----------------------------------------------------|
F#|-------------------------|----------------------------------------%------------|
C#|-5-----4-----------------|----------------------------------------%------------|
G#|-3-----2-----5-----4-----|-7---9---9---9---9----7---9---10---9---------7---9---|
D#|-------------3-----2-----|-5---7---7---7---7----5---7---8----7---------5---7---|

D#|---------------------------------|-------------------------------------------------------|
A#|---------------------------------|-------------------------------------------------------|
F#|---------------------------------|-------------------------------------------------------|
C#|-----------------------12---11---|-7---9---9---9---9----7---9---12---12---9--------------|
G#|-10----9-----10---9----10---9----|-5---7---7---7---7----5---7---10---10---7----5--7--5---|
D#|-8-----7-----8----7--------------|-------------------------------------------------------|

D#|-------------------------|
A#|-------------------------|
F#|-------------------------|
C#|-5-----4-----------------|
G#|-3-----2-----5-----4-----|
D#|-------------3-----2-----|
Black Sabbath - Country Girl
Black Sabbath - Country Girl.gp3