Black Sabbath - Country Girl (2)

Black Sabbath



Title: Country Girl
Album: The Mob Rules
Artist: Black Sabbath
Author: Butler/Dio/Iommi

Track 1: Tony Iommi 1 (riffs and backup guitar)
E|----------------------------------------------------|-------------------------|----------------------------------------------------|
B|----------------------------------------------------|-------------------------|----------------------------------------------------|
G|----------------------------------------------------|-------------------------|----------------------------------------------------|
D|---------------------------5----5-------------------|-------------------------|---------------------------5----5-------------------|
A|-5---7---7----7----5---7-------------7----5--7--5---|-------------------------|-5---7---7----7----5---7-------------7----5--7--5---|
E|----------------------------------------------------|-8-----7-----3-----2-----|----------------------------------------------------|

E|-------------------------|----------------------------------------------------|-------------------------|
B|-------------------------|----------------------------------------------------|-------------------------|
G|-------------------------|----------------------------------------------------|-------------------------|
D|-------------------------|---------------------------5----5-------------------|-------------------------|
A|-------------------------|-5---7---7----7----5---7-------------7----5--7--5---|-------------------------|
E|-8-----7-----3-----2-----|----------------------------------------------------|-8-----7-----3-----2-----|

E|----------------------------------------------------|-------------------------|----------------------------------------------------|
B|----------------------------------------------------|-------------------------|----------------------------------------------------|
G|----------------------------------------------------|-------------------------|----------------------------------------------------|
D|---------------------------5----5-------------------|-------------------------|---------------------------5----5-------------------|
A|-5---7---7----7----5---7-------------7----5--7--5---|-------------------------|-5---7---7----7----5---7-------------7----5--7--5---|
E|----------------------------------------------------|-8-----7-----3-----2-----|----------------------------------------------------|

E|-------------------------|----------------------------------------------------|-------------------------|
B|-------------------------|----------------------------------------------------|-------------------------|
G|-------------------------|----------------------------------------------------|-------------------------|
D|-------------------------|---------------------------5----5-------------------|-------------------------|
A|-------------------------|-5---7---7----7----5---7-------------7----5--7--5---|-------------------------|
E|-8-----7-----3-----2-----|----------------------------------------------------|-8-----7-----3-----2-----|

E|----------------------------------------------------|-------------------------|--------------------------------------------------|
B|----------------------------------------------------|-------------------------|--------------------------------------------------|
G|----------------------------------------------------|-------------------------|-------------------------------------%------------|
D|---------------------------5----5-------------------|-------------------------|-------------------------------------%------------|
A|-5---7---7----7----5---7-------------7----5--7--5---|-------------------------|--------------------------------------------------|
E|----------------------------------------------------|-8-----7-----3-----2-----|-5---7---7----7----5---7---8----7---------5---7---|

E|---------------------------------|----------------------------------------------------|
B|---------------------------------|----------------------------------------------------|
G|---------------------------------|----------------------------------------------------|
D|-----------------------5---------|---------------------------5----5-------------------|
A|----------------------------9----|-5---7---7----7----5---7-------------7----5--7--5---|
E|-8-----7-----8----7--------------|----------------------------------------------------|

E|-------------------------|----------------------------------------------------|-------------------------|
B|-------------------------|----------------------------------------------------|-------------------------|
G|-------------------------|----------------------------------------------------|-------------------------|
D|-------------------------|---------------------------5----5-------------------|-------------------------|
A|-------------------------|-5---7---7----7----5---7-------------7----5--7--5---|-------------------------|
E|-8-----7-----3-----2-----|----------------------------------------------------|-8-----7-----3-----2-----|

E|----------------------------------------------------|-------------------------|----------------------------------------------------|
B|----------------------------------------------------|-------------------------|----------------------------------------------------|
G|----------------------------------------------------|-------------------------|----------------------------------------------------|
D|---------------------------5----5-------------------|-------------------------|---------------------------5----5-------------------|
A|-5---7---7----7----5---7-------------7----5--7--5---|-------------------------|-5---7---7----7----5---7-------------7----5--7--5---|
E|----------------------------------------------------|-8-----7-----3-----2-----|----------------------------------------------------|

E|-------------------------|----------------------------------------------------|-------------------------|
B|-------------------------|----------------------------------------------------|-------------------------|
G|-------------------------|----------------------------------------------------|-------------------------|
D|-------------------------|---------------------------5----5-------------------|-------------------------|
A|-------------------------|-5---7---7----7----5---7-------------7----5--7--5---|-------------------------|
E|-8-----7-----3-----2-----|----------------------------------------------------|-8-----7-----3-----2-----|

E|----------------------------------------------------|-------------------------|-------------------------------|
B|----------------------------------------------------|-------------------------|--------------8----7----7------|
G|----------------------------------------------------|-------------------------|---------9----9----7----7------|
D|---------------------------5----5-------------------|-------------------------|-----9--------9----7----7------|
A|-5---7---7----7----5---7-------------7----5--7--5---|-------------------------|-7------------7----5----5------|
E|----------------------------------------------------|-8-----7-----3-----2-----|-------------------------------|

E|-------------------------------|-------------------------------|-------------------------------|
B|--------------8----7----7------|--------------8----7----7------|--------------8----7----7------|
G|---------9----9----7----7------|---------9----9----7----7------|---------9----9----7----7------|
D|-----9--------9----7----7------|-----9--------9----7----7------|-----9--------9----7----7------|
A|-7------------7----5----5------|-7------------7----5----5------|-7------------7----5----5------|
E|-------------------------------|-------------------------------|-------------------------------|

E|----------------------------------------|-------------------------------------|----------------------------------------|
B|-----------8----------------------------|-----------5-------------------------|-----------8----------------------------|
G|-----------9----------------------------|-----------4-------------------------|-----------9----------------------------|
D|------9---------------7----5------------|------5------------------------------|------9---------------7----5------------|
A|-7---------------5--------------5---4---|-3--------------------9----10---9----|-7---------------5--------------5---4---|
E|----------------------------------------|-----------------7-------------------|----------------------------------------|

E|-------------------------------------|----------------------------------------|-------------------------------------|
B|-----------5-------------------------|-----------8----------------------------|-----------5-------------------------|
G|-----------4-------------------------|-----------9----------------------------|-----------4-------------------------|
D|------5------------------------------|------9---------------7----5------------|------5------------------------------|
A|-3--------------------9----10---9----|-7---------------5--------------5---4---|-3--------------------9----10---9----|
E|-----------------7-------------------|----------------------------------------|-----------------7-------------------|

E|----------------------------------------|-------------------------------------|-------------------------------|
B|-----------8----------------------------|-----------5-------------------------|--------------8----7----7------|
G|-----------9----------------------------|-----------4-------------------------|---------9----9----7----7------|
D|------9---------------7----5------------|------5------------------------------|-----9--------9----7----7------|
A|-7---------------5--------------5---4---|-3--------------------9----10---9----|-7------------7----5----5------|
E|----------------------------------------|-----------------7-------------------|-------------------------------|

E|-------------------------------|-------------------------------|------------------------|
B|--------------8----7----7------|--------------8----7----7------|--------------8----7----|
G|---------9----9----7----7------|---------9----9----7----7------|---------9----9----7----|
D|-----9--------9----7----7------|-----9--------9----7----7------|-----9--------9----7----|
A|-7------------7----5----5------|-7------------7----5----5------|-7------------7----5----|
E|-------------------------------|-------------------------------|------------------------|

E|----------------------------------------------------|-------------------------|----------------------------------------------------|
B|----------------------------------------------------|-------------------------|----------------------------------------------------|
G|----------------------------------------------------|-------------------------|----------------------------------------------------|
D|---------------------------5----5-------------------|-------------------------|---------------------------5----5-------------------|
A|-5---7---7----7----5---7-------------7----5--7--5---|-------------------------|-5---7---7----7----5---7-------------7----5--7--5---|
E|----------------------------------------------------|-8-----7-----3-----2-----|----------------------------------------------------|

E|-------------------------|----------------------------------------------------|-------------------------|
B|-------------------------|----------------------------------------------------|-------------------------|
G|-------------------------|----------------------------------------------------|-------------------------|
D|-------------------------|---------------------------5----5-------------------|-------------------------|
A|-------------------------|-5---7---7----7----5---7-------------7----5--7--5---|-------------------------|
E|-8-----7-----3-----2-----|----------------------------------------------------|-8-----7-----3-----2-----|

E|----------------------------------------------------|-------------------------|----------------------------------------------------|
B|----------------------------------------------------|-------------------------|----------------------------------------------------|
G|----------------------------------------------------|-------------------------|----------------------------------------------------|
D|---------------------------5----5-------------------|-------------------------|---------------------------5----5-------------------|
A|-5---7---7----7----5---7-------------7----5--7--5---|-------------------------|-5---7---7----7----5---7-------------7----5--7--5---|
E|----------------------------------------------------|-8-----7-----3-----2-----|----------------------------------------------------|

E|-------------------------|----------------------------------------------------|-------------------------|
B|-------------------------|----------------------------------------------------|-------------------------|
G|-------------------------|----------------------------------------------------|-------------------------|
D|-------------------------|---------------------------5----5-------------------|-------------------------|
A|-------------------------|-5---7---7----7----5---7-------------7----5--7--5---|-------------------------|
E|-8-----7-----3-----2-----|----------------------------------------------------|-8-----7-----3-----2-----|

E|--------------------------------------------------|---------------------------------|
B|--------------------------------------------------|---------------------------------|
G|-------------------------------------%------------|---------------------------------|
D|-------------------------------------%------------|-----------------------5---------|
A|--------------------------------------------------|----------------------------9----|
E|-5---7---7----7----5---7---8----7---------5---7---|-8-----7-----8----7--------------|

E|----------------------------------------------------|-------------------------|----------------------------------------------------|
B|----------------------------------------------------|-------------------------|----------------------------------------------------|
G|----------------------------------------------------|-------------------------|----------------------------------------------------|
D|---------------------------5----5-------------------|-------------------------|---------------------------5----5-------------------|
A|-5---7---7----7----5---7-------------7----5--7--5---|-------------------------|-5---7---7----7----5---7-------------7----5--7--5---|
E|----------------------------------------------------|-8-----7-----3-----2-----|----------------------------------------------------|

E|-------------------------|----------------------------------------------------|-------------------------|
B|-------------------------|----------------------------------------------------|-------------------------|
G|-------------------------|----------------------------------------------------|-------------------------|
D|-------------------------|---------------------------5----5-------------------|-------------------------|
A|-------------------------|-5---7---7----7----5---7-------------7----5--7--5---|-------------------------|
E|-8-----7-----3-----2-----|----------------------------------------------------|-8-----7-----3-----2-----|

E|----------------------------------------------------|-------------------------|----------------------------------------------------|
B|----------------------------------------------------|-------------------------|----------------------------------------------------|
G|----------------------------------------------------|-------------------------|----------------------------------------------------|
D|---------------------------5----5-------------------|-------------------------|---------------------------5----5-------------------|
A|-5---7---7----7----5---7-------------7----5--7--5---|-------------------------|-5---7---7----7----5---7-------------7----5--7--5---|
E|----------------------------------------------------|-8-----7-----3-----2-----|----------------------------------------------------|

E|-------------------------|----------------------------------------------------|-------------------------|
B|-------------------------|----------------------------------------------------|-------------------------|
G|-------------------------|----------------------------------------------------|-------------------------|
D|-------------------------|---------------------------5----5-------------------|-------------------------|
A|-------------------------|-5---7---7----7----5---7-------------7----5--7--5---|-------------------------|
E|-8-----7-----3-----2-----|----------------------------------------------------|-8-----7-----3-----2-----|

E|----------------------------------------------------|-------------------------|----------------------------------------------------|
B|----------------------------------------------------|-------------------------|----------------------------------------------------|
G|----------------------------------------------------|-------------------------|----------------------------------------------------|
D|---------------------------5----5-------------------|-------------------------|---------------------------5----5-------------------|
A|-5---7---7----7----5---7-------------7----5--7--5---|-------------------------|-5---7---7----7----5---7-------------7----5--7--5---|
E|----------------------------------------------------|-8-----7-----3-----2-----|----------------------------------------------------|

E|-------------------------|----------------------------------------------------|-------------------------|
B|-------------------------|----------------------------------------------------|-------------------------|
G|-------------------------|----------------------------------------------------|-------------------------|
D|-------------------------|---------------------------5----5-------------------|-------------------------|
A|-------------------------|-5---7---7----7----5---7-------------7----5--7--5---|-------------------------|
E|-8-----7-----3-----2-----|----------------------------------------------------|-8-----7-----3-----2-----|

E|----------------------------------------------------|-------------------------|---------|
B|----------------------------------------------------|-------------------------|---------|
G|----------------------------------------------------|-------------------------|-%-------|
D|---------------------------5----5-------------------|-------------------------|-%-------|
A|-5---7---7----7----5---7-------------7----5--7--5---|-------------------------|---------|
E|----------------------------------------------------|-8-----7-----3-----2-----|---------|

E|---------|---------|---------|---------|---------|---------|---------|---------|---------|
B|---------|---------|---------|---------|---------|---------|---------|---------|---------|
G|-%-------|-%-------|-%-------|-%-------|-%-------|-%-------|-%-------|-%-------|-%-------|
D|-%-------|-%-------|-%-------|-%-------|-%-------|-%-------|-%-------|-%-------|-%-------|
A|---------|---------|---------|---------|---------|---------|---------|---------|---------|
E|---------|---------|---------|---------|---------|---------|---------|---------|---------|

E|---------|---------|---------|
B|---------|---------|---------|
G|-%-------|-%-------|-%-------|
D|-%-------|-%-------|-%-------|
A|---------|---------|---------|
E|---------|---------|---------|
Black Sabbath - Country Girl (2)
Black Sabbath - Country Girl (2).gp3