Black Sabbath - Demonoid Phenomenon

Black Sabbath - Demonoid Phenomenon

Black Sabbath



Title: Demonoid Phenomenon
Album: 
Artist: Black Sabbath
Author: Black Sabbath

Track 1: Guitar
E|---------|---------|-----------------------------------------|-----------------------------------------|
B|---------|---------|-----------------------------------------|-----------------------------------------|
G|-%-------|-%-------|-----------------------------------------|-----------------------------------------|
D|-%-------|-%-------|-5----5----5----5----5----5----5----6----|-5----5----5----5----5----5----5----4----|
A|---------|---------|-5----5----5----5----5----5----5----6----|-5----5----5----5----5----5----5----4----|
E|---------|---------|-3----3----3----3----3----3----3----4----|-3----3----3----3----3----3----3----2----|

E|-----------------------------------------|-----------------------------------------|
B|-----------------------------------------|-----------------------------------------|
G|-----------------------------------------|-----------------------------------------|
D|------------------------------------6----|------------------------------------4----|
A|-5----5----5----5----5----5----5----6----|-5----5----5----5----5----5----5----4----|
E|-3----3----3----3----3----3----3----4----|-3----3----3----3----3----3----3----2----|

E|-----------------------------------------------|-----------------------------------------------|
B|-----------------------------------------------|-----------------------------------------------|
G|-----------------------------------------------|-----------------------------------------------|
D|------------------------------------------6----|------------------------------------------4----|
A|-5----5----5---5---5----5----5----5---5---6----|-5----5----5---5---5----5----5---5---5----4----|
E|-3----3----3---3---3----3----3----3---3---4----|-3----3----3---3---3----3----3---3---3----2----|

E|-----------------------------------------------|-----------------------------------------------|
B|-----------------------------------------------|-----------------------------------------------|
G|-----------------------------------------------|-----------------------------------------------|
D|------------------------------------------6----|------------------------------------------4----|
A|-5----5----5---5---5----5----5----5---5---6----|-5----5----5---5---5----5----5----5---5---4----|
E|-3----3----3---3---3----3----3----3---3---4----|-3----3----3---3---3----3----3----3---3---2----|

E|--------------------|---------------|--------------------|---------------|--------------------|
B|--------------------|---------------|--------------------|---------------|--------------------|
G|--------------------|---------------|--------------------|---------%-----|--------------------|
D|-5------4------3----|-3-------2-----|-5------4------3----|-3-------%-----|-5------4------3----|
A|-5------4------3----|-3-------2-----|-5------4------3----|-3-------------|-5------4------3----|
E|-3------2------1----|---------0-----|-3------2------1----|---------------|-3------2------1----|

E|---------------|--------------------|---------------|---------|---------|---------|
B|---------------|--------------------|---------------|---------|---------|---------|
G|---------------|--------------------|---------%-----|-%-------|-%-------|-%-------|
D|-3-------2-----|-5------4------3----|-3-------%-----|-%-------|-%-------|-%-------|
A|-3-------2-----|-5------4------3----|-3-------------|---------|---------|---------|
E|---------0-----|-3------2------1----|---------------|---------|---------|---------|

E|---------|---------|---------|---------|---------|---------|---------|---------|---------|
B|---------|---------|---------|---------|---------|---------|---------|---------|---------|
G|-%-------|-%-------|-%-------|-%-------|-%-------|-%-------|-%-------|-%-------|-%-------|
D|-%-------|-%-------|-%-------|-%-------|-%-------|-%-------|-%-------|-%-------|-%-------|
A|---------|---------|---------|---------|---------|---------|---------|---------|---------|
E|---------|---------|---------|---------|---------|---------|---------|---------|---------|

E|---------|-------------------|-------------------|-------------------|---------|-------------------|
B|---------|-------------------|-------------------|-------------------|---------|-------------------|
G|-%-------|--------------%----|--------------%----|--------------%----|-%-------|--------------%----|
D|-%-------|--------------%----|--------------%----|--------------%----|-%-------|--------------%----|
A|---------|-5-------6---------|-5-------6---------|-5-------4---------|---------|-5-------6---------|
E|---------|-3-------4---------|-3-------4---------|-3-------2---------|---------|-3-------4---------|

E|-------------------|-------------------|---------|-----------------------------------------------|
B|-------------------|-------------------|---------|-----------------------------------------------|
G|--------------%----|--------------%----|-%-------|-----------------------------------------------|
D|--------------%----|--------------%----|-%-------|------------------------------------------6----|
A|-5-------6---------|-5-------4---------|---------|-5----5----5---5---5----5----5----5---5---6----|
E|-3-------4---------|-3-------2---------|---------|-3----3----3---3---3----3----3----3---3---4----|

E|-----------------------------------------------|-----------------------------------------------|
B|-----------------------------------------------|-----------------------------------------------|
G|-----------------------------------------------|-----------------------------------------------|
D|------------------------------------------4----|------------------------------------------6----|
A|-5----5----5---5---5----5----5----5---5---4----|-5----5----5---5---5----5----5----5---5---6----|
E|-3----3----3---3---3----3----3----3---3---2----|-3----3----3---3---3----3----3----3---3---4----|

E|-----------------------------------------------|-----------------------------------------------|
B|-----------------------------------------------|-----------------------------------------------|
G|-----------------------------------------------|-----------------------------------------------|
D|------------------------------------------4----|------------------------------------------6----|
A|-5----5----5---5---5----5----5----5---5---4----|-5----5----5---5---5----5----5----5---5---6----|
E|-3----3----3---3---3----3----3----3---3---2----|-3----3----3---3---3----3----3----3---3---4----|

E|-----------------------------------------------|-----------------------------------------------|
B|-----------------------------------------------|-----------------------------------------------|
G|-----------------------------------------------|-----------------------------------------------|
D|------------------------------------------4----|------------------------------------------6----|
A|-5----5----5---5---5----5----5----5---5---4----|-5----5----5---5---5----5----5----5---5---6----|
E|-3----3----3---3---3----3----3----3---3---2----|-3----3----3---3---3----3----3----3---3---4----|

E|-----------------------------------------------|--------------------|---------------|
B|-----------------------------------------------|--------------------|---------------|
G|-----------------------------------------------|--------------------|---------------|
D|------------------------------------------4----|-5------4------3----|-3-------2-----|
A|-5----5----5---5---5----5----5----5---5---4----|-5------4------3----|-3-------2-----|
E|-3----3----3---3---3----3----3----3---3---2----|-3------2------1----|---------0-----|

E|--------------------|---------------|--------------------|---------------|--------------------|
B|--------------------|---------------|--------------------|---------------|--------------------|
G|--------------------|---------%-----|--------------------|---------------|--------------------|
D|-5------4------3----|-3-------%-----|-5------4------3----|-3-------2-----|-5------4------3----|
A|-5------4------3----|-3-------------|-5------4------3----|-3-------2-----|-5------4------3----|
E|-3------2------1----|---------------|-3------2------1----|---------0-----|-3------2------1----|

E|---------------|---------|---------|---------|---------|---------|---------|---------|
B|---------------|---------|---------|---------|---------|---------|---------|---------|
G|---------%-----|-%-------|-%-------|-%-------|-%-------|-%-------|-%-------|-%-------|
D|-3-------%-----|-%-------|-%-------|-%-------|-%-------|-%-------|-%-------|-%-------|
A|-3-------------|---------|---------|---------|---------|---------|---------|---------|
E|---------------|---------|---------|---------|---------|---------|---------|---------|

E|---------|---------|-------------------|-------------------|-------------------|---------|
B|---------|---------|-------------------|-------------------|-------------------|---------|
G|-%-------|-%-------|--------------%----|--------------%----|--------------%----|-%-------|
D|-%-------|-%-------|--------------%----|--------------%----|--------------%----|-%-------|
A|---------|---------|-5-------6---------|-5-------6---------|-5-------4---------|---------|
E|---------|---------|-3-------4---------|-3-------4---------|-3-------2---------|---------|

E|-------------------|-------------------|-------------------|---------|-----------------------------------------------|
B|-------------------|-------------------|-------------------|---------|-----------------------------------------------|
G|--------------%----|--------------%----|--------------%----|-%-------|-----------------------------------------------|
D|--------------%----|--------------%----|--------------%----|-%-------|------------------------------------------6----|
A|-5-------6---------|-5-------6---------|-5-------4---------|---------|-5----5----5---5---5----5----5----5---5---6----|
E|-3-------4---------|-3-------4---------|-3-------2---------|---------|-3----3----3---3---3----3----3----3---3---4----|

E|-----------------------------------------------|-----------------------------------------------|
B|-----------------------------------------------|-----------------------------------------------|
G|-----------------------------------------------|-----------------------------------------------|
D|------------------------------------------4----|------------------------------------------6----|
A|-5----5----5---5---5----5----5----5---5---4----|-5----5----5---5---5----5----5----5---5---6----|
E|-3----3----3---3---3----3----3----3---3---2----|-3----3----3---3---3----3----3----3---3---4----|

E|-----------------------------------------------|-----------------------------------------------|
B|-----------------------------------------------|-----------------------------------------------|
G|-----------------------------------------------|-----------------------------------------------|
D|------------------------------------------4----|------------------------------------------6----|
A|-5----5----5---5---5----5----5----5---5---4----|-5----5----5---5---5----5----5----5---5---6----|
E|-3----3----3---3---3----3----3----3---3---2----|-3----3----3---3---3----3----3----3---3---4----|

E|-----------------------------------------------|-----------------------------------------------|
B|-----------------------------------------------|-----------------------------------------------|
G|-----------------------------------------------|-----------------------------------------------|
D|------------------------------------------4----|------------------------------------------6----|
A|-5----5----5---5---5----5----5----5---5---4----|-5----5----5---5---5----5----5----5---5---6----|
E|-3----3----3---3---3----3----3----3---3---2----|-3----3----3---3---3----3----3----3---3---4----|

E|-----------------------------------------------|--------------------|---------------|
B|-----------------------------------------------|--------------------|---------------|
G|-----------------------------------------------|--------------------|---------------|
D|------------------------------------------4----|-5------4------3----|-3-------2-----|
A|-5----5----5---5---5----5----5----5---5---4----|-5------4------3----|-3-------2-----|
E|-3----3----3---3---3----3----3----3---3---2----|-3------2------1----|---------0-----|

E|--------------------|---------------|--------------------|---------------|--------------------|
B|--------------------|---------------|--------------------|---------------|--------------------|
G|--------------------|---------%-----|--------------------|---------------|--------------------|
D|-5------4------3----|-3-------%-----|-5------4------3----|-3-------2-----|-5------4------3----|
A|-5------4------3----|-3-------------|-5------4------3----|-3-------2-----|-5------4------3----|
E|-3------2------1----|---------------|-3------2------1----|---------0-----|-3------2------1----|

E|---------------|--------------------|---------------|--------------------|---------------|
B|---------------|--------------------|---------------|--------------------|---------------|
G|---------%-----|--------------------|---------------|--------------------|---------%-----|
D|-3-------%-----|-5------4------3----|-3-------2-----|-5------4------3----|-3-------%-----|
A|-3-------------|-5------4------3----|-3-------2-----|-5------4------3----|-3-------------|
E|---------------|-3------2------1----|---------0-----|-3------2------1----|---------------|

E|--------------------|---------------|--------------------|---------------|---------|
B|--------------------|---------------|--------------------|---------------|---------|
G|--------------------|---------------|--------------------|---------%-----|-%-------|
D|-5------4------3----|-3-------2-----|-5------4------3----|-3-------%-----|-%-------|
A|-5------4------3----|-3-------2-----|-5------4------3----|-3-------------|---------|
E|-3------2------1----|---------0-----|-3------2------1----|---------------|---------|

E|---------|-------11-----11-----13--|-13------|-11-----11-----12---|-12------|-------------------|
B|---------|-------------------------|---------|--------------------|---------|-------------------|
G|-%-------|-%-----------------------|---------|--------------------|---------|--------------%----|
D|-%-------|-%-----------------------|---------|--------------------|---------|--------------%----|
A|---------|-------------------------|---------|--------------------|---------|-5-------6---------|
E|---------|-------------------------|---------|--------------------|---------|-3-------4---------|

E|-------------------|-------------------|---------|-------------------|-------------------|
B|-------------------|-------------------|---------|-------------------|-------------------|
G|--------------%----|--------------%----|-%-------|--------------%----|--------------%----|
D|--------------%----|--------------%----|-%-------|--------------%----|--------------%----|
A|-5-------6---------|-5-------4---------|---------|-5-------6---------|-5-------6---------|
E|-3-------4---------|-3-------2---------|---------|-3-------4---------|-3-------4---------|

E|-------------------|---------|-----------------------------------------------|-----------------------------------------------|
B|-------------------|---------|-----------------------------------------------|-----------------------------------------------|
G|--------------%----|-%-------|-----------------------------------------------|-----------------------------------------------|
D|--------------%----|-%-------|------------------------------------------6----|------------------------------------------4----|
A|-5-------4---------|---------|-5----5----5---5---5----5----5----5---5---6----|-5----5----5---5---5----5----5----5---5---4----|
E|-3-------2---------|---------|-3----3----3---3---3----3----3----3---3---4----|-3----3----3---3---3----3----3----3---3---2----|

E|-----------------------------------------------|-----------------------------------------------|
B|-----------------------------------------------|-----------------------------------------------|
G|-----------------------------------------------|-----------------------------------------------|
D|------------------------------------------6----|------------------------------------------4----|
A|-5----5----5---5---5----5----5----5---5---6----|-5----5----5---5---5----5----5----5---5---4----|
E|-3----3----3---3---3----3----3----3---3---4----|-3----3----3---3---3----3----3----3---3---2----|

E|-----------------------------------------------|-----------------------------------------------|
B|-----------------------------------------------|-----------------------------------------------|
G|-----------------------------------------------|-----------------------------------------------|
D|------------------------------------------6----|------------------------------------------4----|
A|-5----5----5---5---5----5----5----5---5---6----|-5----5----5---5---5----5----5----5---5---4----|
E|-3----3----3---3---3----3----3----3---3---4----|-3----3----3---3---3----3----3----3---3---2----|

E|-----------------------------------------------|-----------------------------------------------|
B|-----------------------------------------------|-----------------------------------------------|
G|-----------------------------------------------|-----------------------------------------------|
D|------------------------------------------6----|------------------------------------------4----|
A|-5----5----5---5---5----5----5----5---5---6----|-5----5----5---5---5----5----5----5---5---4----|
E|-3----3----3---3---3----3----3----3---3---4----|-3----3----3---3---3----3----3----3---3---2----|

E|---------------|---------13----|---------------|---------13----|---------------|---------13----|
B|--------15-----|-15------------|--------15-----|-15------------|--------15-----|-15------------|
G|-14------------|---------------|-14------------|---------------|-14------------|---------------|
D|---------------|---------------|---------------|---------------|---------------|---------------|
A|---------------|---------------|---------------|---------------|---------------|---------------|
E|---------------|---------------|---------------|---------------|---------------|---------------|

E|---------------|---------13----|---------------|--------13-----13---|---------------|
B|--------15-----|-15------------|--------15-----|-15-----------------|--------15-----|
G|-14------------|---------------|-14------------|--------------------|-14------------|
D|---------------|---------------|---------------|--------------------|---------------|
A|---------------|---------------|---------------|--------------------|---------------|
E|---------------|---------------|---------------|--------------------|---------------|

E|---------13----|---------------|--------13-----|---------------|--------13-----|-13------------|
B|-15------------|--------15-----|-15------------|--------15-----|-15------------|---------------|
G|---------------|-14------------|---------------|-14------------|---------------|--------%------|
D|---------------|---------------|---------------|---------------|---------------|--------%------|
A|---------------|---------------|---------------|---------------|---------------|---------------|
E|---------------|---------------|---------------|---------------|---------------|---------------|
Black Sabbath - Demonoid Phenomenon
Black Sabbath - Demonoid Phenomenon.gp4