Black Sabbath - Die Young (2)

Black Sabbath



Title: Die Young
Album: Heaven and Hell
Artist: Black Sabbath
Author: Black Sabbath

Track 1: Bass
F#|---------|---------|---------|---------|---------|---------|---------|---------------------------0----0---2----2---0-------|
C#|-%-------|-%-------|-%-------|-%-------|-%-------|-%-------|-%-------|-2----2---2----2---2---2-------------------------4---|
G#|-%-------|-%-------|-%-------|-%-------|-%-------|-%-------|-%-------|-----------------------------------------------------|
D#|---------|---------|---------|---------|---------|---------|---------|-----------------------------------------------------|

F#|---------------------------------------------0-------|---------------------------0----0---2----2---0-------|
C#|-2----2---2----2---2---2------------0----0-------4---|-2----2---2----2---2---2-------------------------4---|
G#|---------------------------3----3--------------------|-----------------------------------------------------|
D#|-----------------------------------------------------|-----------------------------------------------------|

F#|---------------------------0-------------------------------|---------------------------0----0---2----2---0-------|
C#|-2----2---2----2---2---2-------4---0---0---0---0---0---0---|-2----2---2----2---2---2-------------------------4---|
G#|-----------------------------------------------------------|-----------------------------------------------------|
D#|-----------------------------------------------------------|-----------------------------------------------------|

F#|---------------------------------------------0-------|---------------------------0----0---2----2---0-------|
C#|-2----2---2----2---2---2------------0----0-------4---|-2----2---2----2---2---2-------------------------4---|
G#|---------------------------3----3--------------------|-----------------------------------------------------|
D#|-----------------------------------------------------|-----------------------------------------------------|

F#|---------------------------0-------------------------------------|---------|-------------------0-------|
C#|-2----2---2----2---2---2-------4---0---0---0----0----0-----0-----|-2-------|--------0-----0--------4---|
G#|-----------------------------------------------------------------|---------|-3-------------------------|
D#|-----------------------------------------------------------------|---------|---------------------------|

F#|--------0--------2--------0-------|--------0---------------------|---------|-------------------0-------|
C#|-2-----------%--------%-------4---|-2----------4---0---0-----0---|-2-------|--------0-----0--------4---|
G#|-------------%--------%-----------|------------------------------|---------|-3-------------------------|
D#|----------------------------------|------------------------------|---------|---------------------------|

F#|------------------------|--------------------|---------------------------0----0---2----2---0-------|
C#|-2----------------------|--------------------|-2----2---2----2---2---2-------------------------4---|
G#|--------3-----3----3----|-5------5-----5-----|-----------------------------------------------------|
D#|------------------------|--------------------|-----------------------------------------------------|

F#|---------------------------------------------0-------|---------------------------0----0---2----2---0-------|
C#|-2----2---2----2---2---2------------0----0-------4---|-2----2---2----2---2---2-------------------------4---|
G#|---------------------------3----3--------------------|-----------------------------------------------------|
D#|-----------------------------------------------------|-----------------------------------------------------|

F#|---------------------------0-------------------------------|---------|-------------------0-------|
C#|-2----2---2----2---2---2-------4---0---0---0---0---0---0---|-2-------|--------0-----0--------4---|
G#|-----------------------------------------------------------|---------|-3-------------------------|
D#|-----------------------------------------------------------|---------|---------------------------|

F#|--------0--------2--------0-------|--------0---------------------|---------|-------------------0-------|
C#|-2-----------%--------%-------4---|-2----------4---0---0-----0---|-2-------|--------0-----0--------4---|
G#|-------------%--------%-----------|------------------------------|---------|-3-------------------------|
D#|----------------------------------|------------------------------|---------|---------------------------|

F#|------------------------|--------9---7---------------------------|-0-------------2---4---2---9---7-----------0---------------|
C#|-2----------------------|----------------9---7---9---7-----------|----------0------------------------9---7-------0---0---0---|
G#|--------3-----3----3----|-5------------------------------9---7---|------X----------------------------------------------------|
D#|------------------------|----------------------------------------|-----------------------------------------------------------|

F#|-0-----------------------------------------|-0-----------------------------2---4---2---9---7---7---7---|
C#|----------0--------------------------------|----------0----0---0---0---%-------------------------------|
G#|------X--------X---3---3-----3-----3---3---|------X--------------------%-------------------------------|
D#|-------------------------------------------|-----------------------------------------------------------|

F#|-----------------------------------------------------------------0---------------|
C#|-5---4---2---4---2---0-------%---%---%---%-------2---4---%---4-------0---%---0---|
G#|-------------------------2---%---%---%---%---2-----------%---------------%-------|
D#|---------------------------------------------------------------------------------|

F#|---------|---------|---------|------------------------11--12--|-9-------|----------------------|
C#|-2-------|-2-------|-2-------|-%-----%-----%----%-------------|---------|--------------%-------|
G#|---------|---------|---------|-%-----%-----%----%-------------|---------|-7----7-------%---7---|
D#|---------|---------|---------|--------------------------------|---------|----------------------|

F#|--------------------|----------------------------------0---2---4---7---|-9-----12----11----11----11--|
C#|--------------------|-%----%----%----%----%--------4-------------------|-----------------------------|
G#|-7----7------7------|-%----%----%----%----%----7-----------------------|-----------------------------|
D#|--------------------|--------------------------------------------------|-----------------------------|

F#|-------12----11---------------|-------12----11---------11-------6---|-7-----10----------9---------------0-------|
C#|-2-----------------12----12---|-------------------%---------9-------|-----------7---0---------10---0--------4---|
G#|------------------------------|-------------------%-----------------|-------------------------------------------|
D#|------------------------------|-12----------------------------------|-------------------------------------------|

F#|---------------|---------|---------|------------------------------|-0---2---2--------------------------------0----|
C#|-2------%------|-%-------|-%-------|-0---2---2---%------%-----%---|--------------%-----------------%--------------|
G#|--------%------|-%-------|-%-------|-------------%------%-----%---|--------------%----2---2---3----%----3---------|
D#|---------------|---------|---------|------------------------------|-----------------------------------------------|

F#|------------------------------|-0---2---2---------------------------0---------|------------------------------|
C#|-0---2---2---%------%-----%---|--------------%---------------------------4----|-0---2---2---%------%-----%---|
G#|-------------%------%-----%---|--------------%----2---2---3-------------------|-------------%------%-----%---|
D#|------------------------------|--------------------------------3--------------|------------------------------|

F#|-0---2---2--------------------------------0----|------------------------------|-0---2---2---------------------------0---------|
C#|--------------%-----------------%--------------|-0---2---2---%------%-----%---|--------------%---------------------------4----|
G#|--------------%----2---2---3----%----3---------|-------------%------%-----%---|--------------%----2---2---3-------------------|
D#|-----------------------------------------------|------------------------------|--------------------------------3--------------|

F#|-2--------------------------|-4-------|------------------------|---------------------------0----0---2----2---0-------|
C#|-------------0----2----4----|---------|----------0----2----4---|-2----2---2----2---2---2-------------------------4---|
G#|--------3-------------------|---------|-2---3------------------|-----------------------------------------------------|
D#|----------------------------|---------|------------------------|-----------------------------------------------------|

F#|---------------------------------------------0-------|---------------------------0----0---2----2---0-------|
C#|-2----2---2----2---2---2------------0----0-------4---|-2----2---2----2---2---2-------------------------4---|
G#|---------------------------3----3--------------------|-----------------------------------------------------|
D#|-----------------------------------------------------|-----------------------------------------------------|

F#|---------------------------0-------------------------------|---------|-------------------0-------|
C#|-2----2---2----2---2---2-------4---0---0---0---0---0---0---|-2-------|--------0-----0--------4---|
G#|-----------------------------------------------------------|---------|-3-------------------------|
D#|-----------------------------------------------------------|---------|---------------------------|

F#|--------0--------2--------0-------|--------0---------------------|---------|-------------------0-------|
C#|-2-----------%--------%-------4---|-2----------4---0---0-----0---|-2-------|--------0-----0--------4---|
G#|-------------%--------%-----------|------------------------------|---------|-3-------------------------|
D#|----------------------------------|------------------------------|---------|---------------------------|

F#|------------------------|--------9---7---------------------------|-0-------------2---4---2---9---7-----------0---------------|
C#|-2----------------------|----------------9---7---9---7-----------|----------0------------------------9---7-------0---0---0---|
G#|--------3-----3----3----|-5------------------------------9---7---|------X----------------------------------------------------|
D#|------------------------|----------------------------------------|-----------------------------------------------------------|

F#|-0-----------------------------------------|-0-----------------------------2---4---2---9---7---7---7---|
C#|----------0--------------------------------|----------0----0---0---0---%-------------------------------|
G#|------X--------X---3---3-----3-----3---3---|------X--------------------%-------------------------------|
D#|-------------------------------------------|-----------------------------------------------------------|

F#|-----0-------0---2---0---------------------------0---2---9---9---|-----------------------------------------------------|
C#|-2-------4---------------4---2---2---0---2---4-------------------|------------------------0----0---0---0---0---0---0---|
G#|-----------------------------------------------------------------|-----------------------------------------------------|
D#|-----------------------------------------------------------------|-8----8---8----8---8---------------------------------|

F#|------0-------2---0-------------------2---3---4---7---9---9---|-----------------------------------------------------|
C#|-2--------2-----------2---2---2---2---------------------------|------------------------0----0---0---0---0---0---0---|
G#|--------------------------------------------------------------|-----------------------------------------------------|
D#|--------------------------------------------------------------|-8----8---8----8---8---------------------------------|

F#|-----0-------0---2---0---------------------------0---2---9---9---|-----------------------------------------------------|
C#|-2-------4---------------4---2---2---0---2---4-------------------|------------------------0----0---0---0---0---0---0---|
G#|-----------------------------------------------------------------|-----------------------------------------------------|
D#|-----------------------------------------------------------------|-8----8---8----8---8---------------------------------|

F#|------0-------2---0-------------------2---3---4---7---9---9---|-----------------------------------------------------|
C#|-2--------2-----------2---2---2---2---------------------------|------------------------0----0---0---0---0---0---0---|
G#|--------------------------------------------------------------|-----------------------------------------------------|
D#|--------------------------------------------------------------|-8----8---8----8---8---------------------------------|

F#|-----0-------0---2---0---------------------------0---2---9---9---|-----------------------------------------------------|
C#|-2-------4---------------4---2---2---0---2---4-------------------|------------------------0----0---0---0---0---0---0---|
G#|-----------------------------------------------------------------|-----------------------------------------------------|
D#|-----------------------------------------------------------------|-8----8---8----8---8---------------------------------|

F#|------0-------2---0-------------------2---3---4---7---9---9---|-----------------------------------------------------|
C#|-2--------2-----------2---2---2---2---------------------------|------------------------0----0---0---0---0---0---0---|
G#|--------------------------------------------------------------|-----------------------------------------------------|
D#|--------------------------------------------------------------|-8----8---8----8---8---------------------------------|

F#|-----0-------0---2---0---------------------------0---2---9---9---|-----------------------------------------------------|
C#|-2-------4---------------4---2---2---0---2---4-------------------|------------------------0----0---0---0---0---0---0---|
G#|-----------------------------------------------------------------|-----------------------------------------------------|
D#|-----------------------------------------------------------------|-8----8---8----8---8---------------------------------|

F#|------0-------2---0-------------------2---3---4---7---9---9---|-----------------------------------------------------|
C#|-2--------2-----------2---2---2---2---------------------------|------------------------0----0---0---0---0---0---0---|
G#|--------------------------------------------------------------|-----------------------------------------------------|
D#|--------------------------------------------------------------|-8----8---8----8---8---------------------------------|

F#|-----0-------0---2---0---------------------------0---2---9---9---|-----------------------------------------------------|
C#|-2-------4---------------4---2---2---0---2---4-------------------|------------------------0----0---0---0---0---0---0---|
G#|-----------------------------------------------------------------|-----------------------------------------------------|
D#|-----------------------------------------------------------------|-8----8---8----8---8---------------------------------|

F#|------0-------2---0-------------------2---3---4---7---9---9---|-----------------------------------------------------|
C#|-2--------2-----------2---2---2---2---------------------------|------------------------0----0---0---0---0---0---0---|
G#|--------------------------------------------------------------|-----------------------------------------------------|
D#|--------------------------------------------------------------|-8----8---8----8---8---------------------------------|

F#|-----0-------0---2---0---------------------------0---2---9---9---|-----------------------------------------------------|
C#|-2-------4---------------4---2---2---0---2---4-------------------|------------------------0----0---0---0---0---0---0---|
G#|-----------------------------------------------------------------|-----------------------------------------------------|
D#|-----------------------------------------------------------------|-8----8---8----8---8---------------------------------|

F#|------0-------2---0-------------------2---3---4---7---9---9---|-----------------------------------------------------|
C#|-2--------2-----------2---2---2---2---------------------------|------------------------0----0---0---0---0---0---0---|
G#|--------------------------------------------------------------|-----------------------------------------------------|
D#|--------------------------------------------------------------|-8----8---8----8---8---------------------------------|
Black Sabbath - Die Young (2)
Black Sabbath - Die Young (2).gp4