Black Sabbath - Dirty Women

Black Sabbath - Dirty Women

Black Sabbath



Title: Dirty Women
Album: 
Artist: Black Sabbath
Author: Black Sabbath

Track 1: Guitar
E|----------------------------|---------------------------------|----------------------------|
B|----------------------------|---------------------------------|----------------------------|
G|-----------2----------------|-----------2---------------------|-----------2----------------|
D|------2---------------------|------2---------3-----2----------|------2---------------------|
A|-0---------0----------------|-0---------0----------------3----|-0---------0----------------|
E|----------------3----3------|---------------------------------|----------------3----3------|

E|---------------------------------|----------------------------|---------------------------------|
B|---------------------------------|----------------------------|---------------------------------|
G|-----------2---------------------|-----------2----------------|-----------2---------------------|
D|------2---------3-----2----------|------2---------------------|------2---------3-----2----------|
A|-0---------0----------------3----|-0---------0----------------|-0---------0----------------3----|
E|---------------------------------|----------------3----3------|---------------------------------|

E|----------------------------|---------------------------------|----------------------------|
B|----------------------------|---------------------------------|----------------------------|
G|-----------2----------------|-----------2---------------------|-----------2----------------|
D|------2---------------------|------2---------3-----2----------|------2---------------------|
A|-0---------0----------------|-0---------0----------------3----|-0---------0----------------|
E|----------------3----3------|---------------------------------|----------------3----3------|

E|---------------------------------|-----------------------------------------|-----------------------------------------|
B|---------------------------------|-----------6-------------------5---------|-----------6-------------------5---------|
G|-----------2---------------------|-----------7-------------------5---------|-----------7-------------------5---------|
D|------2---------3-----2----------|------7---------7---------5---------5----|------7---------7---------5---------5----|
A|-0---------0----------------3----|-5-------------------5-------------------|-5-------------------5-------------------|
E|---------------------------------|-----------------------------------------|-----------------------------------------|

E|-----------------------------------------|-----------------------------------------|
B|-----------6-------------------5---------|-----------6-------------------5---------|
G|-----------7-------------------5---------|-----------7-------------------5---------|
D|------7---------7---------5---------5----|------7---------7---------5---------5----|
A|-5-------------------5-------------------|-5-------------------5-------------------|
E|-----------------------------------------|-----------------------------------------|

E|-----------------------------------------|-----------------------------------------|
B|-----------6-------------------5---------|-----------6-------------------5---------|
G|-----------7-------------------5---------|-----------7-------------------5---------|
D|------7---------7---------5---------5----|------7---------7---------5---------5----|
A|-5-------------------5-------------------|-5-------------------5-------------------|
E|-----------------------------------------|-----------------------------------------|

E|----------------------------|---------------------------------|----------------------------|
B|----------------------------|---------------------------------|----------------------------|
G|-----------2----------------|-----------2---------------------|-----------2----------------|
D|------2---------------------|------2---------3-----2----------|------2---------------------|
A|-0---------0----------------|-0---------0----------------3----|-0---------0----------------|
E|----------------3----3------|---------------------------------|----------------3----3------|

E|---------------------------------|----------------------------|---------------------------------|
B|---------------------------------|----------------------------|---------------------------------|
G|-----------2---------------------|-----------2----------------|-----------2---------------------|
D|------2---------3-----2----------|------2---------------------|------2---------3-----2----------|
A|-0---------0----------------3----|-0---------0----------------|-0---------0----------------3----|
E|---------------------------------|----------------3----3------|---------------------------------|

E|----------------------------|---------------------------------|----------------------------|
B|----------------------------|---------------------------------|----------------------------|
G|-----------2----------------|-----------2---------------------|-----------2----------------|
D|------2---------------------|------2---------3-----2----------|------2---------------------|
A|-0---------0----------------|-0---------0----------------3----|-0---------0----------------|
E|----------------3----3------|---------------------------------|----------------3----3------|

E|---------------------------------|----------------------------|---------------------------------|
B|---------------------------------|----------------------------|---------------------------------|
G|-----------2---------------------|-----------2----------------|-----------2---------------------|
D|------2---------3-----2----------|------2---------------------|------2---------3-----2----------|
A|-0---------0----------------3----|-0---------0----------------|-0---------0----------------3----|
E|---------------------------------|----------------3----3------|---------------------------------|

E|-----------------------------------------|-----------------------------------------|
B|-----------6-------------------5---------|-----------6-------------------5---------|
G|-----------7-------------------5---------|-----------7-------------------5---------|
D|------7---------7---------5---------5----|------7---------7---------5---------5----|
A|-5-------------------5-------------------|-5-------------------5-------------------|
E|-----------------------------------------|-----------------------------------------|

E|-----------------------------------------|-----------------------------------------|
B|-----------6-------------------5---------|-----------6-------------------5---------|
G|-----------7-------------------5---------|-----------7-------------------5---------|
D|------7---------7---------5---------5----|------7---------7---------5---------5----|
A|-5-------------------5-------------------|-5-------------------5-------------------|
E|-----------------------------------------|-----------------------------------------|

E|-----------------------------------------|-----------------------------------------|
B|-----------6-------------------5---------|-----------6-------------------5---------|
G|-----------7-------------------5---------|-----------7-------------------5---------|
D|------7---------7---------5---------5----|------7---------7---------5---------5----|
A|-5-------------------5-------------------|-5-------------------5-------------------|
E|-----------------------------------------|-----------------------------------------|

E|----------------------------|---------------------------------|----------------------------|
B|----------------------------|---------------------------------|----------------------------|
G|-----------2----------------|-----------2---------------------|-----------2----------------|
D|------2---------------------|------2---------3-----2----------|------2---------------------|
A|-0---------0----------------|-0---------0----------------3----|-0---------0----------------|
E|----------------3----3------|---------------------------------|----------------3----3------|

E|---------------------------------|----------------------------|---------|----------------------------|
B|---------------------------------|----------------------------|---------|----------------------------|
G|-----------2---------------------|----------------------------|---------|----------------------------|
D|------2---------3-----2----------|----------------------------|---------|-5------7-----5---7---8-----|
A|-0---------0----------------3----|-5------7-----5---7---8-----|-8-------|----------------------------|
E|---------------------------------|----------------------------|---------|----------------------------|

E|---------|----------------------------|------------------------|-------------------|
B|---------|----------------------------|------------------------|-------------------|
G|---------|----------------------------|-------------5----------|--------------5----|
D|-8-------|----------------------------|-------------------7----|-7-------7---------|
A|---------|-3------5-----3---5---7-----|-7------7---------------|-------------------|
E|---------|----------------------------|------------------------|-------------------|

E|-------------------|----------------------------|---------|----------------------------|
B|-------------------|----------------------------|---------|----------------------------|
G|-7----9----9-------|----------------------------|---------|----------------------------|
D|-------------------|----------------------------|---------|-5------7-----5---7---8-----|
A|-------------------|-5------7-----5---7---8-----|-8-------|----------------------------|
E|-------------------|----------------------------|---------|----------------------------|

E|---------|----------------------------|-------------------|-------------------|------10--------------------------------|
B|---------|----------------------------|--------------13---|-13------13---13---|-13--------13--10-----------------------|
G|---------|----------------------------|-------------------|-------------------|-------------------12---10---------10---|
D|-8-------|----------------------------|-------------------|-------------------|-----------------------------12---------|
A|---------|-3------5-----3---5---7-----|-7-------7---------|-------------------|----------------------------------------|
E|---------|----------------------------|-------------------|-------------------|----------------------------------------|

E|------------------------------------------|----------------------------------------------|
B|------------------------------------------|----------------------------------------------|
G|-12--%---14----10------12--10-------------|----------------------------------------------|
D|-----%-------------12----------12----10---|----------------------------------------------|
A|------------------------------------------|-12-10---8----10--8----------------------8----|
E|------------------------------------------|----------------------10----8----8---10-------|

E|----------------------------------------------13--10------10--|--------------------------------------------------------------|
B|-----------------------------------------13-----------13------|-13--10-------------------------------------------------------|
G|-------------------------10--10--12--%------------------------|---------12--10--12---10------12--10------10------------------|
D|---------10--10--10--12--------------%------------------------|--------------------------12----------12------12--10----------|
A|-10--12-------------------------------------------------------|------------------------------------------------------12--10--|
E|--------------------------------------------------------------|--------------------------------------------------------------|

E|-----------------------------------------------------------|----------------------------------------------|
B|---------------------------------------------------13--10--|-13-------------------------------------------|
G|---------------------------------10------10---12-----------|-----%---12----10--12--%---12--10-------------|
D|-----------------10--10--10--12------12--------------------|-----%-----------------%-----------12---------|
A|-8-------8---10--------------------------------------------|-----------------------------------------10---|
E|-----10----------------------------------------------------|----------------------------------------------|

E|--------------------------------------------------|-----------------------------------------------------|
B|------13-------13-------13-------13-------13------|-----13-------13-------13----------------------------|
G|-12-------12-------12-------12-------12-------12--|-12------12-------12-------12--%---12--%---10--------|
D|--------------------------------------------------|-------------------------------%-------%--------12---|
A|--------------------------------------------------|-----------------------------------------------------|
E|--------------------------------------------------|-----------------------------------------------------|

E|-------------------10---13--10--------------------------|--------------10------12-----------|
B|--------------------------------13--10--13--10----------|------13---------------------------|
G|------10--%---12--------------------------------12--10--|-12-------%-------%----------12----|
D|-12-------%---------------------------------------------|----------%-------%----------------|
A|--------------------------------------------------------|-----------------------------------|
E|--------------------------------------------------------|-----------------------------------|

E|------10------------------------------------------------------|-----------------------------------------------------------|
B|--------------13--10------10----------------------------------|---------------------------------------------------13--13--|
G|-12-------%-----------12------12--10--------------------------|------9---10--9---10--9---------------10--10--12-----------|
D|----------%---------------------------12--10------------------|-10-----------------------10--10--12-----------------------|
A|----------------------------------------------12--10--8-------|-----------------------------------------------------------|
E|----------------------------------------------------------10--|-----------------------------------------------------------|

E|------13------15------15------13------------------------|------------------------------------------|
B|-13--------------------------------15--13---------------|------------------------------------------|
G|----------%-------%-------%----------------14--12--10---|-12--10--------------%--------------------|
D|----------%-------%-------%-----------------------------|---------12--10--12--%---12-----12----0---|
A|--------------------------------------------------------|------------------------------------------|
E|--------------------------------------------------------|------------------------------------------|

E|----------------------------|---------|----------------------------|---------|----------------------------|
B|----------------------------|---------|----------------------------|---------|----------------------------|
G|----------------------------|---------|----------------------------|---------|----------------------------|
D|----------------------------|---------|-5------7-----5---7---8-----|-8-------|----------------------------|
A|-5------7-----5---7---8-----|-8-------|----------------------------|---------|-3------5-----3---5---7-----|
E|----------------------------|---------|----------------------------|---------|----------------------------|

E|------------------------|-------------------|-------------------|----------------------------|
B|------------------------|-------------------|-------------------|----------------------------|
G|-------------5----------|--------------5----|-7----9----9-------|----------------------------|
D|-------------------7----|-7-------7---------|-------------------|----------------------------|
A|-7------7---------------|-------------------|-------------------|-5------7-----5---7---8-----|
E|------------------------|-------------------|-------------------|----------------------------|

E|---------|----------------------------|---------|----------------------------|---------|
B|---------|----------------------------|---------|----------------------------|---------|
G|---------|----------------------------|---------|----------------------------|---------|
D|---------|-5------7-----5---7---8-----|-8-------|----------------------------|---------|
A|-8-------|----------------------------|---------|-3------5-----3---5---7-----|-7-------|
E|---------|----------------------------|---------|----------------------------|---------|

E|--------------------------------------------|--------------------------------------------|
B|--------------------------------------------|--------------------------------------------|
G|--------------------------------------------|--------------------------------------------|
D|--------------------------------------------|--------------------7----5------------------|
A|-5----7----8----5---7----8----5---7----8----|-3----5----7----3-------------8----7---5----|
E|--------------------------------------------|--------------------------------------------|

E|--------------------|--------------------|-------------------------|-----------------------------------------|
B|--------------------|--------------------|-------------------------|-----------------------------------------|
G|--------------------|--------------------|--------------------%----|---------------------%-------------------|
D|-7------7----7------|-7------7----7------|-12-----12-----12---%----|-7----7----5----7----%-------------------|
A|-7------7----7------|-7------7----7------|-10-----10-----10--------|-5----5----3----5---------3----5----3----|
E|-5------5----5------|-5------5----5------|-------------------------|--------------------------1----3----1----|

E|-----------------------------------|-----------------------------------------|-----------------------------------|
B|-----------------------------------|-----------------------------------------|-----------------------------------|
G|-----------------------------------|---------------------%-------------------|-----------------------------------|
D|-----------------------------------|-7----7----5----7----%-------------------|-----------------------------------|
A|-5---5---8-----10--10--10----10----|-5----5----3----5---------3----5----3----|-5---5---8-----10--10--10----10----|
E|-3---3---6-----8---8---8-----8-----|--------------------------1----3----1----|-3---3---6-----8---8---8-----8-----|

E|-----------------------------------------|-----------------------------------|-----------------------------------------|
B|-----------------------------------------|-----------------------------------|-----------------------------------------|
G|---------------------%-------------------|-----------------------------------|---------------------%-------------------|
D|-7----7----5----7----%-------------------|-----------------------------------|-7----7----5----7----%-------------------|
A|-5----5----3----5---------3----5----3----|-5---5---8-----10--10--10----10----|-5----5----3----5---------3----5----3----|
E|--------------------------1----3----1----|-3---3---6-----8---8---8-----8-----|--------------------------1----3----1----|

E|-----------------------------------|-----------------------------------------|-----------------------------------|
B|-----------------------------------|-----------------------------------------|-----------------------------------|
G|-----------------------------------|---------------------%-------------------|-----------------------------------|
D|-----------------------------------|-7----7----5----7----%-------------------|-----------------------------------|
A|-5---5---8-----10--10--10----10----|-5----5----3----5---------3----5----3----|-5---5---8-----10--10--10----10----|
E|-3---3---6-----8---8---8-----8-----|--------------------------1----3----1----|-3---3---6-----8---8---8-----8-----|

E|-----------------------------------------|-----------------------------------|-----------------------------------------|
B|-----------------------------------------|-----------------------------------|-----------------------------------------|
G|---------------------%-------------------|-----------------------------------|---------------------%-------------------|
D|-7----7----5----7----%-------------------|-----------------------------------|-7----7----5----7----%-------------------|
A|-5----5----3----5---------3----5----3----|-5---5---8-----10--10--10----10----|-5----5----3----5---------3----5----3----|
E|--------------------------1----3----1----|-3---3---6-----8---8---8-----8-----|--------------------------1----3----1----|

E|-----------------------------------|-----------------------------------------|-----------------------------------|
B|-----------------------------------|-----------------------------------------|-----------------------------------|
G|-----------------------------------|---------------------%-------------------|-----------------------------------|
D|-----------------------------------|-7----7----5----7----%-------------------|-----------------------------------|
A|-5---5---8-----10--10--10----10----|-5----5----3----5---------3----5----3----|-5---5---8-----10--10--10----10----|
E|-3---3---6-----8---8---8-----8-----|--------------------------1----3----1----|-3---3---6-----8---8---8-----8-----|

E|-----------------------------------------|-----------------------------------|-----------------------------------------|
B|-----------------------------------------|-----------------------------------|-----------------------------------------|
G|---------------------%-------------------|-----------------------------------|---------------------%-------------------|
D|-7----7----5----7----%-------------------|-----------------------------------|-7----7----5----7----%-------------------|
A|-5----5----3----5---------3----5----3----|-5---5---8-----10--10--10----10----|-5----5----3----5---------3----5----3----|
E|--------------------------1----3----1----|-3---3---6-----8---8---8-----8-----|--------------------------1----3----1----|

E|-----------------------------------|---------|---------------------------------|---------------------------------------|
B|-----------------------------------|-13------|---------------------------------|---------------------------------------|
G|-----------------------------------|---------|-------------12---12---10---12---|-10------------------------------------|
D|-----------------------------------|---------|-12-----12-----------------------|------12----12-----5----5----3----5----|
A|-5---5---8-----10--10--10----10----|---------|---------------------------------|---------------------------------------|
E|-3---3---6-----8---8---8-----8-----|---------|---------------------------------|---------------------------------------|

E|--------------------|------------3-----2----------|------------3-----2----------|
B|--------------------|-----------------------3-----|-----------------------3-----|
G|--------------------|------2----------------------|------2----------------------|
D|-3----0-----0-------|-0---------------------------|-----------------------------|
A|--------------------|-----------------------------|-3---------------------------|
E|--------------------|-----------------------------|-----------------------------|

E|------------3-----2----------|------------3-----2----------|------------3-----2----------|
B|-----------------------3-----|-----------------------3-----|-----------------------3-----|
G|------0----------------------|------0----------------------|------2----------------------|
D|-----------------------------|-----------------------------|-0---------------------------|
A|-2---------------------------|-1---------------------------|-----------------------------|
E|-----------------------------|-----------------------------|-----------------------------|

E|------------3-----2----------|------------3-----2----------|------------3-----2----------|
B|-----------------------3-----|-----------------------3-----|-----------------------3-----|
G|------2----------------------|------0----------------------|------0----------------------|
D|-----------------------------|-----------------------------|-----------------------------|
A|-3---------------------------|-2---------------------------|-1---------------------------|
E|-----------------------------|-----------------------------|-----------------------------|

E|------------3-----2----------|------------3-----2----------|------------3-----2----------|
B|-----------------------3-----|-----------------------3-----|-----------------------3-----|
G|------2----------------------|------2----------------------|------0----------------------|
D|-0---------------------------|-----------------------------|-----------------------------|
A|-----------------------------|-3---------------------------|-2---------------------------|
E|-----------------------------|-----------------------------|-----------------------------|

E|------------3-----2----------|------------3-----2----------|------------3-----2----------|
B|-----------------------3-----|-----------------------3-----|-----------------------3-----|
G|------0----------------------|------2----------------------|------2----------------------|
D|-----------------------------|-0---------------------------|-----------------------------|
A|-1---------------------------|-----------------------------|-3---------------------------|
E|-----------------------------|-----------------------------|-----------------------------|

E|------------3-----2----------|------------3-----2----------|
B|-----------------------3-----|-----------------------3-----|
G|------0----------------------|------0----------------------|
D|-----------------------------|-----------------------------|
A|-2---------------------------|-1---------------------------|
E|-----------------------------|-----------------------------|
Black Sabbath - Dirty Women
Black Sabbath - Dirty Women.gp3