Black Sabbath - Dying For Love

Black Sabbath - Dying For Love

Black Sabbath



Title: Dying For Love
Album: Cross Purposes
Artist: Black Sabbath
Author: 

Track 1: Distortion Guitar (Eb Tuning)
D#|---------|---------|---------|---------|---------|---------|---------|---------|
A#|---------|---------|---------|---------|---------|---------|---------|---------|
F#|-%-------|-%-------|-%-------|-%-------|-%-------|-%-------|-%-------|-%-------|
C#|-%-------|-%-------|-%-------|-%-------|-%-------|-%-------|-%-------|-%-------|
G#|---------|---------|---------|---------|---------|---------|---------|---------|
D#|---------|---------|---------|---------|---------|---------|---------|---------|

D#|---------|---------|---------|---------|---------|---------|---------|---------|
A#|---------|---------|---------|---------|---------|---------|---------|---------|
F#|-%-------|-%-------|-%-------|-%-------|-%-------|-%-------|-%-------|-%-------|
C#|-%-------|-%-------|-%-------|-%-------|-%-------|-%-------|-%-------|-%-------|
G#|---------|---------|---------|---------|---------|---------|---------|---------|
D#|---------|---------|---------|---------|---------|---------|---------|---------|

D#|---------|---------|---------|---------|---------|---------|---------|---------|
A#|---------|---------|---------|---------|---------|---------|---------|---------|
F#|-%-------|-%-------|-%-------|-%-------|-%-------|-%-------|-%-------|-%-------|
C#|-%-------|-%-------|-%-------|-%-------|-%-------|-%-------|-%-------|-%-------|
G#|---------|---------|---------|---------|---------|---------|---------|---------|
D#|---------|---------|---------|---------|---------|---------|---------|---------|

D#|---------|---------|---------|---------|---------|---------|---------|---------|
A#|---------|---------|---------|---------|---------|---------|---------|---------|
F#|-%-------|-%-------|-%-------|-%-------|-%-------|-%-------|-%-------|-%-------|
C#|-%-------|-%-------|-%-------|-%-------|-%-------|-%-------|-%-------|-%-------|
G#|---------|---------|---------|---------|---------|---------|---------|---------|
D#|---------|---------|---------|---------|---------|---------|---------|---------|

D#|---------|---------|---------|---------|---------|---------|---------|---------|
A#|---------|---------|---------|---------|---------|---------|---------|---------|
F#|-%-------|-%-------|-%-------|-%-------|-%-------|-%-------|-%-------|-%-------|
C#|-%-------|-%-------|-%-------|-%-------|-%-------|-%-------|-%-------|-%-------|
G#|---------|---------|---------|---------|---------|---------|---------|---------|
D#|---------|---------|---------|---------|---------|---------|---------|---------|

D#|---------|---------|---------|---------|---------|---------|---------|---------|
A#|---------|---------|---------|---------|---------|---------|---------|---------|
F#|-%-------|-%-------|-%-------|-%-------|-%-------|-%-------|-%-------|-%-------|
C#|-%-------|-%-------|-%-------|-%-------|-%-------|-%-------|-%-------|-%-------|
G#|---------|---------|---------|---------|---------|---------|---------|---------|
D#|---------|---------|---------|---------|---------|---------|---------|---------|

D#|---------|---------|---------|---------|---------|---------------|--------------------|
A#|---------|---------|---------|---------|---------|---------------|--------------------|
F#|-%-------|-%-------|-%-------|---------|---------|---------------|--------------------|
C#|-%-------|-%-------|-%-------|---------|---------|-3-------------|--------------------|
G#|---------|---------|---------|---------|-3-------|--------5------|-3------2-----------|
D#|---------|---------|---------|-5-------|---------|---------------|-------------3------|

D#|---------|---------|---------------|--------------------|---------|---------|---------|
A#|---------|---------|---------------|--------------------|---------|---------|---------|
F#|---------|---------|---------------|--------------------|-%-------|-%-------|-%-------|
C#|---------|---------|-3-------------|-------------5------|-%-------|-%-------|-%-------|
G#|---------|-3-------|--------5------|-3------2-----------|---------|---------|---------|
D#|-5-------|---------|---------------|--------------------|---------|---------|---------|

D#|---------|---------|---------|---------|---------|---------|---------|---------|
A#|---------|---------|---------|---------|---------|---------|---------|---------|
F#|-%-------|-%-------|-%-------|-%-------|-%-------|-%-------|-%-------|-%-------|
C#|-%-------|-%-------|-%-------|-%-------|-%-------|-%-------|-%-------|-%-------|
G#|---------|---------|---------|---------|---------|---------|---------|---------|
D#|---------|---------|---------|---------|---------|---------|---------|---------|

D#|---------|---------|---------|---------|---------|---------|---------|---------------|
A#|---------|---------|---------|---------|---------|---------|---------|---------------|
F#|-%-------|-%-------|-%-------|-%-------|-%-------|---------|---------|---------------|
C#|-%-------|-%-------|-%-------|-%-------|-%-------|---------|---------|-3-------------|
G#|---------|---------|---------|---------|---------|---------|-3-------|--------5------|
D#|---------|---------|---------|---------|---------|-5-------|---------|---------------|

D#|--------------------|---------|---------|---------------|--------------------|---------|
A#|--------------------|---------|---------|---------------|--------------------|---------|
F#|--------------------|---------|---------|---------------|--------------------|---------|
C#|--------------------|---------|---------|-3-------------|-------------5------|-7-------|
G#|-3------2-----------|---------|-3-------|--------5------|-3------2-----------|---------|
D#|-------------3------|-5-------|---------|---------------|--------------------|---------|

D#|---------|---------------|--------------------|---------|---------|---------------|
A#|---------|---------------|--------------------|---------|---------|---------------|
F#|---------|---------------|--------------------|---------|---------|---------------|
C#|---------|-3-------------|--------------------|---------|---------|-3-------------|
G#|-3-------|--------5------|-3------2-----------|---------|-3-------|--------5------|
D#|---------|---------------|-------------3------|-5-------|---------|---------------|

D#|--------------------|-------------------------------------|---------------------------------|
A#|--------------------|-------------------------------------|---------------------------------|
F#|--------------------|-2----2----2---------2----%----%-----|-%-----2---------2----0----0-----|
C#|-------------5------|-2----2----2----0----2----%----%-----|-%-----2----0----2----X----------|
G#|-3------2-----------|-0----0----0----X----0---------------|-------0----X----0----3----3-----|
D#|--------------------|----------------3--------------------|------------3--------------------|

D#|-------------------------------------|---------|-------------------------------------|
A#|-------------------------------------|---------|-------------------------------------|
F#|-2----2----2---------2----%----%-----|-%-------|-2----2----2---------2----%----%-----|
C#|-2----2----2----0----2----%----%-----|-%-------|-2----2----2----0----2----%----%-----|
G#|-0----0----0----X----0---------------|---------|-0----0----0----X----0---------------|
D#|----------------3--------------------|---------|----------------3--------------------|

D#|---------------------------------|-----------------------------------------|-----------------------------------------|
A#|---------------------------------|-----------------------------------------|-----------------------------------------|
F#|-%-----2---------2----0----0-----|-2----2----2---------2----%--------------|-----------0----0--------------0----0----|
C#|-%-----2----0----2----X----------|-2----2----2----0----2----%----2----4----|------2----2----2---------4----4----4----|
G#|-------0----X----0----3----3-----|-0----0----0----X----0---------0----2----|-3----3----3----3----5----5----5----5----|
D#|------------3--------------------|----------------3------------------------|-----------------------------------------|

D#|---------|---------------|---------|---------------|---------|---------------|---------|
A#|---------|---------------|---------|---------------|---------|---------------|---------|
F#|---------|---------------|---------|---------------|---------|---------------|---------|
C#|-9-------|--------5------|-9-------|--------7------|-9-------|--------5------|-9-------|
G#|-7-------|-5------3------|-7-------|-5------5------|-7-------|-5------3------|-7-------|
D#|-0-------|-3-------------|-0-------|-3-------------|-0-------|-3-------------|-0-------|

D#|---------------|---------|---------------|---------|---------------|---------|---------------|
A#|---------------|---------|---------------|---------|---------------|---------|---------------|
F#|---------------|---------|-3------5------|---------|-3-------------|---------|-3------5------|
C#|--------7------|-5-------|-1------3------|-5-------|-1------3------|-5-------|-1------3------|
G#|-5------5------|-3-------|---------------|-3-------|--------1------|-3-------|---------------|
D#|-3-------------|---------|---------------|---------|---------------|---------|---------------|

D#|---------|---------------|-------------------|---------------|---------------|--------------------|
A#|---------|---------------|-------------------|---------------|---------------|--------------------|
F#|---------|-3-------------|-------------------|-0------0------|---------------|--------------------|
C#|-5-------|-1------3------|-2-------2----4----|-X------0------|--------7------|-5-----------0------|
G#|-3-------|--------1------|-0-------0----2----|-3------X------|-3------5------|-3------2-----------|
D#|---------|---------------|-------------------|--------3------|-1-------------|-------------3------|

D#|-------------------|---------------|---------------|--------------------|-------------------|
A#|-------------------|---------------|---------------|--------------------|-------------------|
F#|-------------------|-0------0------|---------------|--------------------|-------------------|
C#|-2-------2----4----|-X------0------|--------7------|-5-----------5------|-2-------2----4----|
G#|-0-------0----2----|-3------X------|-3------5------|-3------2-----------|-0-------0----2----|
D#|-------------------|--------3------|-1-------------|--------------------|-------------------|

D#|---------------|---------------|--------------------|-------------------|---------------|
A#|---------------|---------------|--------------------|-------------------|---------------|
F#|-0------0------|---------------|--------------------|-------------------|-0------0------|
C#|-X------0------|--------7------|-5-----------0------|-2-------2----4----|-X------0------|
G#|-3------X------|-3------5------|-3------2-----------|-0-------0----2----|-3------X------|
D#|--------3------|-1-------------|-------------3------|-------------------|--------3------|

D#|---------------|--------------------|-----------------------------------------|---------------|
A#|---------------|--------------------|-----------------------------------------|---------------|
F#|---------------|--------------------|-2----2----2---------2----%--------------|-0------0------|
C#|--------7------|-5-----------5------|-2----2----2----0----2----%----2----4----|-X------0------|
G#|-3------5------|-3------2-----------|-0----0----0----X----0---------0----2----|-3------X------|
D#|-1-------------|--------------------|----------------3------------------------|--------3------|

D#|---------------|--------------------|-----------------------------------------|---------------|
A#|---------------|--------------------|-----------------------------------------|---------------|
F#|---------------|--------------------|-2----2----2---------2----%--------------|-0------0------|
C#|--------7------|-5-----------0------|-2----2----2----0----2----%----2----4----|-X------0------|
G#|-3------5------|-3------2-----------|-0----0----0----X----0---------0----2----|-3------X------|
D#|-1-------------|-------------3------|----------------3------------------------|--------3------|

D#|---------------|--------------------|-----------------------------------------|---------------|
A#|---------------|--------------------|-----------------------------------------|---------------|
F#|---------------|--------------------|-2----2----2---------2----%--------------|-0------0------|
C#|--------7------|-5-----------5------|-2----2----2----0----2----%----2----4----|-X------0------|
G#|-3------5------|-3------2-----------|-0----0----0----X----0---------0----2----|-3------X------|
D#|-1-------------|--------------------|----------------3------------------------|--------3------|

D#|---------------|--------------------|-----------------------------------------|---------------|
A#|---------------|--------------------|-----------------------------------------|---------------|
F#|---------------|--------------------|-2----2----2---------2----%--------------|-0------0------|
C#|--------7------|-5-----------0------|-2----2----2----0----2----%----2----4----|-X------0------|
G#|-3------5------|-3------2-----------|-0----0----0----X----0---------0----2----|-3------X------|
D#|-1-------------|-------------3------|----------------3------------------------|--------3------|

D#|---------------|--------------------|-----------------------------------------|---------------|
A#|---------------|--------------------|-----------------------------------------|---------------|
F#|---------------|--------------------|-2----2----2---------2----%--------------|-0------0------|
C#|--------7------|-5-----------5------|-2----2----2----0----2----%----2----4----|-X------0------|
G#|-3------5------|-3------2-----------|-0----0----0----X----0---------0----2----|-3------X------|
D#|-1-------------|--------------------|----------------3------------------------|--------3------|

D#|---------------|--------------------|-----------------------------------------|---------------|
A#|---------------|--------------------|-----------------------------------------|---------------|
F#|---------------|--------------------|-2----2----2---------2----%--------------|-0------0------|
C#|--------7------|-5-----------0------|-2----2----2----0----2----%----2----4----|-X------0------|
G#|-3------5------|-3------2-----------|-0----0----0----X----0---------0----2----|-3------X------|
D#|-1-------------|-------------3------|----------------3------------------------|--------3------|

D#|---------------|--------------------|-----------------------------------------|---------------|
A#|---------------|--------------------|-----------------------------------------|---------------|
F#|---------------|--------------------|-2----2----2---------2----%--------------|-0------0------|
C#|--------7------|-5-----------5------|-2----2----2----0----2----%----2----4----|-X------0------|
G#|-3------5------|-3------2-----------|-0----0----0----X----0---------0----2----|-3------X------|
D#|-1-------------|--------------------|----------------3------------------------|--------3------|

D#|---------|
A#|---------|
F#|-%-------|
C#|-%-------|
G#|---------|
D#|---------|
Black Sabbath - Dying For Love
Black Sabbath - Dying For Love.gp4