Black Sabbath - Embryo

Black Sabbath - Embryo

Black Sabbath



Title: Embryo
Album: 
Artist: 
Author: Black Sabbath

Track 1: Acoustic Guitar in C#
C#|-0----0----0----0----0---0---0---0---0----0-------|-0----0----0----0----0---0---0---0---0----0-------|
G#|--------------------------------------------------|--------------------------------------------------|
 E|--------------------------------------------------|--------------------------------------------------|
 B|-2----4----5----4----2---4---5---4---2----2---0---|-5----7----9----7----5---7---5---4---2----2---0---|
F#|--------------------------------------------------|--------------------------------------------------|
C#|--------------------------------------------------|--------------------------------------------------|

C#|-0----0----0----0----0---0---0---0---0----0-------|-0----0----0----0----0---0---0---0---0----0-------|
G#|--------------------------------------------------|--------------------------------------------------|
 E|--------------------------------------------------|--------------------------------------------------|
 B|-9----7----5----4----2---4---5---4---2----2---0---|-2----4----5----4----2---4---5---4---2----2---0---|
F#|--------------------------------------------------|--------------------------------------------------|
C#|--------------------------------------------------|--------------------------------------------------|

C#|-0----0----0----0----0---0---0---0---0----0-------|-0----0----0----0----0---0---0---0---0----0-------|
G#|--------------------------------------------------|--------------------------------------------------|
 E|--------------------------------------------------|--------------------------------------------------|
 B|-14---12---9----12---7---9---5---4---2----2---0---|-2----4----5----4----2---4---5---4---2----2---0---|
F#|--------------------------------------------------|--------------------------------------------------|
C#|--------------------------------------------------|--------------------------------------------------|

C#|-3----2----0----0----0---0---0---0---0----0-------|-7----5----3----2----0---0---0---0--------0-----0--|
G#|--------------------------------------------------|---------------------------------------------------|
 E|--------------------------------------------------|---------------------------------------------------|
 B|-0----0----0----2----2---4---5---4---2----2---0---|-5----4----2----0----2---4---5---4--5--4--2-----2--|
F#|--------------------------------------------------|---------------------------------------------------|
C#|--------------------------------------------------|---------------------------------------------------|
Black Sabbath - Embryo
Black Sabbath - Embryo.gp3