Black Sabbath - Embryo (2)

Black Sabbath - Embryo (2)

Black Sabbath



Title: Embryo
Album: 
Artist: 
Author: Black Sabbath

Track 1: Guitar 1
E|---------------------------------------------------------|---------------------------------------------------------|
B|-2-----2-----2-----2-----2----2----2----2----2-----2-----|-2-----2-----2-----2-----2----2----2----2----2-----2-----|
G|---------------------------------------------------------|-------------1-------------------------------------------|
D|-------1-----2-----1----------1----2----1----------------|-2-----4-----------4-----2----4----2----1----------------|
A|-4-----------------------4-------------------4-----4-----|---------------------------------------------4-----4-----|
E|---------------------------------------------------------|---------------------------------------------------------|

E|-------------------------------------------------------------|---------------------------------------------------------|
B|-2-----2-----2-----2-----2----2----2----2----2-----2---------|-2-----2-----2-----2-----2----2----2----2----2-----2-----|
G|-1-----------------------------------------------------------|---------------------------------------------------1-----|
D|-------4-----2-----1----------1----2----1--------------------|-------1-----2-----1----------1----2----1----------------|
A|-------------------------4-------------------4-----4----2----|-4-----------------------4-------------------4-----------|
E|-------------------------------------------------------------|---------------------------------------------------------|

E|-------------------------------------------------------------|-------------------------------------------------------------|
B|-2-----0-----------0-----------------------------------------|-2-----2-----2-----2-----2----2----2----2----2-----2---------|
G|-6-----6-----6-----6-----6----6----6----6----6-----6---------|-------------------------------------------------------------|
D|-------------6-----------4----6------------------------------|-------1-----2-----1----------1----2----1--------------------|
A|-----------------------------------7----6----4-----4----2----|-4-----------------------4-------------------4-----4----2----|
E|-------------------------------------------------------------|-------------------------------------------------------------|

E|-0-------------------------------------------------------|-4-----2-----0---------------------------------------|
B|-------4-----2-----2-----2---------2---------2-----2-----|-------------------2-----2----2----2----2----2-------|
G|---------------------------------------------------------|-----------------------------------------------------|
D|------------------------------1----2----1----------------|-2-----2----------------------1----2----1------------|
A|-2-----------------4-----4-------------------4-----4-----|-------------4-----4-----4-------------------4-------|
E|---------------------------------------------------------|-----------------------------------------------------|
Black Sabbath - Embryo (2)
Black Sabbath - Embryo (2).gp3