Black Sabbath - Embryo (3)

Black Sabbath - Embryo (3)

Black Sabbath



Title: Embryo
Album: Master of Reality
Artist: Black Sabbath
Author: Andrew Walshver

Track 1: Acoustic Guitar
C#|-0---0---0---0---0-----0-----0---0-----0---0---0---0---0-----0-----0---0-----|-0---0---0---0---0-----0-----0---0-----0---0---0---0---0-----0-----0---0-----|
G#|-----------------------------------------------------------------------------|-----------------------------------------------------------------------------|
 E|-----------------------------------------------------------------------------|-----------------------------------------------------------------------------|
 B|-2---4---5---4---2--0--5--4--2---2--0--5---7---9---7---5--4--2--0--2---2--0--|-9---7---5---4---2--4--5--4--2---2--0--2---4---5---4---2--0--5--4--2---2--0--|
F#|-----------------------------------------------------------------------------|-----------------------------------------------------------------------------|
C#|-----------------------------------------------------------------------------|-----------------------------------------------------------------------------|

C#|-0---0---0---0---0-----0-----0---0-----0---0---0---0---0-----0-----0---0-----|-3---2---0---0---0-----0-----0---0-----7---5---3---0---0-----0-----0---0---|
G#|-----------------------------------------------------------------------------|---------------------------------------------------------------------------|
 E|-----------------------------------------------------------------------------|---------------------------------------------------------------------------|
 B|-14--12--9---12--7--9--5--4--2---2--0--2---4---5---4---2--0--5--4--2---2--0--|-0---0---0---2---2--4--5--4--2---2--0--5---4---2---0---2--4--5--4--2---2---|
F#|-----------------------------------------------------------------------------|---------------------------------------------------------------------------|
C#|-----------------------------------------------------------------------------|---------------------------------------------------------------------------|
Black Sabbath - Embryo (3)
Black Sabbath - Embryo (3).gp3