Black Sabbath - Fairies Wear Boots

Black Sabbath - Fairies Wear Boots

Black Sabbath



Title: Fairies Wear Boots 
Album: 
Artist: 
Author: Black Sabbath

Track 1: Intro (muted)
E|-----------------------------------------------------------|-----------------------------------------------------------|
B|-----------------------------------------------------------|-----------------------------------------------------------|
G|--------------3--------------------3-----------------------|--------------3--------------------3-----------------------|
D|----------3-------5----5-------3-------5---5---5---3---5---|----------3-------5----5-------3-------5---5---5---3---5---|
A|------5--------------------5-------------------------------|------5--------------------5-------------------------------|
E|-3---------------------------------------------------------|-3---------------------------------------------------------|

E|-----------------------------------------------------------|-----------------------------------------------------------|
B|-----------------------------------------------------------|-----------------------------------------------------------|
G|--------------3--------------------3-----------------------|--------------3--------------------3-----------3-------%---|
D|----------3-------5----5-------3-------5---5---5---3---5---|----------3-------5----5-------3-------5---5-------5---%---|
A|------5--------------------5-------------------------------|------5--------------------5-------------------------------|
E|-3---------------------------------------------------------|-3---------------------------------------------------------|

E|-------------------------------------------------------|-------------------------------------------------------|
B|------1----1---0-------0-------------------------------|------1----1---0-------0-------------------------------|
G|-2-----------------2-------%---2---0---0--2----0--2----|-2-----------------2-------%---2---0---0--2----0--2----|
D|---------------------------%---------------------------|---------------------------%---------------------------|
A|-------------------------------------------------------|-------------------------------------------------------|
E|-------------------------------------------------------|-------------------------------------------------------|

E|-------------------------------------------------------|--------------------------------------------------------|
B|--------------1---0-------0----------------------------|-1---0-------1---0-------1---0-------1---0----0---------|
G|---------0------------2-------2---0----0--2----0--2----|---------2-----------2-----------2-----------------2----|
D|-0---2-------------------------------------------------|--------------------------------------------------------|
A|-------------------------------------------------------|--------------------------------------------------------|
E|-------------------------------------------------------|--------------------------------------------------------|

E|------7----10--15--7----7----5----5---7----7---|---------10----------12----------7-----------5---5----7----|
B|-----------------------------------------------|-----------------------------------------------------------|
G|-4----4----7---12--4----4----2----2---4--------|-4---7-------7---9-------9---4-------4---2-------2----4----|
D|-----------------------------------------------|-----------------------------------------------------------|
A|-----------------------------------------------|-----------------------------------------------------------|
E|-----------------------------------------------|-----------------------------------------------------------|

E|-7----10---10--15--7----7----5----5---7--------|-7-----10--10---12---12--12--15---12--10-------|
B|-----------------------------------------------|-----------------------------------------------|
G|-4----7----7---12--4----4----2----2---4----%---|-4-----7---7----9----9---9---12---9---7--------|
D|-------------------------------------------%---|-----------------------------------------------|
A|-----------------------------------------------|-----------------------------------------------|
E|-----------------------------------------------|------------------------------------------0----|

E|---------|---------|---------|---------|---------|---------|---------|---------|---------|
B|---------|---------|---------|---------|---------|---------|---------|---------|---------|
G|-%-------|-%-------|-%-------|-%-------|-%-------|-%-------|-%-------|-%-------|-%-------|
D|-%-------|-%-------|-%-------|-%-------|-%-------|-%-------|-%-------|-%-------|-%-------|
A|---------|---------|---------|---------|---------|---------|---------|---------|---------|
E|---------|---------|---------|---------|---------|---------|---------|---------|---------|

E|---------|---------|---------|---------|---------|---------|---------|---------|---------|
B|---------|---------|---------|---------|---------|---------|---------|---------|---------|
G|-%-------|-%-------|-%-------|-%-------|-%-------|-%-------|-%-------|-%-------|-%-------|
D|-%-------|-%-------|-%-------|-%-------|-%-------|-%-------|-%-------|-%-------|-%-------|
A|---------|---------|---------|---------|---------|---------|---------|---------|---------|
E|---------|---------|---------|---------|---------|---------|---------|---------|---------|

E|---------|---------|---------|---------|---------|---------|---------|---------|---------|
B|---------|---------|---------|---------|---------|---------|---------|---------|---------|
G|-%-------|-%-------|-%-------|-%-------|-%-------|-%-------|-%-------|-%-------|-%-------|
D|-%-------|-%-------|-%-------|-%-------|-%-------|-%-------|-%-------|-%-------|-%-------|
A|---------|---------|---------|---------|---------|---------|---------|---------|---------|
E|---------|---------|---------|---------|---------|---------|---------|---------|---------|

E|---------|---------|---------|---------|---------|---------|---------|---------|---------|
B|---------|---------|---------|---------|---------|---------|---------|---------|---------|
G|-%-------|-%-------|-%-------|-%-------|-%-------|-%-------|-%-------|-%-------|-%-------|
D|-%-------|-%-------|-%-------|-%-------|-%-------|-%-------|-%-------|-%-------|-%-------|
A|---------|---------|---------|---------|---------|---------|---------|---------|---------|
E|---------|---------|---------|---------|---------|---------|---------|---------|---------|

E|---------|---------|---------|---------|---------|---------|---------|---------|---------|
B|---------|---------|---------|---------|---------|---------|---------|---------|---------|
G|-%-------|-%-------|-%-------|-%-------|-%-------|-%-------|-%-------|-%-------|-%-------|
D|-%-------|-%-------|-%-------|-%-------|-%-------|-%-------|-%-------|-%-------|-%-------|
A|---------|---------|---------|---------|---------|---------|---------|---------|---------|
E|---------|---------|---------|---------|---------|---------|---------|---------|---------|

E|---------|---------|---------|---------|---------|---------|---------|---------|---------|
B|---------|---------|---------|---------|---------|---------|---------|---------|---------|
G|-%-------|-%-------|-%-------|-%-------|-%-------|-%-------|-%-------|-%-------|-%-------|
D|-%-------|-%-------|-%-------|-%-------|-%-------|-%-------|-%-------|-%-------|-%-------|
A|---------|---------|---------|---------|---------|---------|---------|---------|---------|
E|---------|---------|---------|---------|---------|---------|---------|---------|---------|

E|---------|---------|---------|---------|---------|---------|---------|---------|---------|
B|---------|---------|---------|---------|---------|---------|---------|---------|---------|
G|-%-------|-%-------|-%-------|-%-------|-%-------|-%-------|-%-------|-%-------|-%-------|
D|-%-------|-%-------|-%-------|-%-------|-%-------|-%-------|-%-------|-%-------|-%-------|
A|---------|---------|---------|---------|---------|---------|---------|---------|---------|
E|---------|---------|---------|---------|---------|---------|---------|---------|---------|

E|---------|---------|---------|---------|---------|---------|---------|---------|---------|
B|---------|---------|---------|---------|---------|---------|---------|---------|---------|
G|-%-------|-%-------|-%-------|-%-------|-%-------|-%-------|-%-------|-%-------|-%-------|
D|-%-------|-%-------|-%-------|-%-------|-%-------|-%-------|-%-------|-%-------|-%-------|
A|---------|---------|---------|---------|---------|---------|---------|---------|---------|
E|---------|---------|---------|---------|---------|---------|---------|---------|---------|

E|---------|---------|---------|---------|---------|---------|---------|---------|---------|
B|---------|---------|---------|---------|---------|---------|---------|---------|---------|
G|-%-------|-%-------|-%-------|-%-------|-%-------|-%-------|-%-------|-%-------|-%-------|
D|-%-------|-%-------|-%-------|-%-------|-%-------|-%-------|-%-------|-%-------|-%-------|
A|---------|---------|---------|---------|---------|---------|---------|---------|---------|
E|---------|---------|---------|---------|---------|---------|---------|---------|---------|

E|---------|---------|---------|---------|---------|---------|---------|---------|---------|
B|---------|---------|---------|---------|---------|---------|---------|---------|---------|
G|-%-------|-%-------|-%-------|-%-------|-%-------|-%-------|-%-------|-%-------|-%-------|
D|-%-------|-%-------|-%-------|-%-------|-%-------|-%-------|-%-------|-%-------|-%-------|
A|---------|---------|---------|---------|---------|---------|---------|---------|---------|
E|---------|---------|---------|---------|---------|---------|---------|---------|---------|

E|---------|---------|---------|---------|---------|---------|----------------------------------------------------|
B|---------|---------|---------|---------|---------|---------|------1----1---0-------0----------------------------|
G|-%-------|-%-------|-%-------|-%-------|-%-------|-%-------|-2-----------------2-------2---0----0--2----0--2----|
D|-%-------|-%-------|-%-------|-%-------|-%-------|-%-------|----------------------------------------------------|
A|---------|---------|---------|---------|---------|---------|----------------------------------------------------|
E|---------|---------|---------|---------|---------|---------|----------------------------------------------------|

E|----------------------------------------------------|-------------------------------------------------------|
B|------1----1---0-------0----------------------------|--------------1---0-------0----------------------------|
G|-2-----------------2-------2---0----0--2----0--2----|---------0------------2-------2---0----0--2----0--2----|
D|----------------------------------------------------|-0---2-------------------------------------------------|
A|----------------------------------------------------|-------------------------------------------------------|
E|----------------------------------------------------|-------------------------------------------------------|

E|--------------------------------------------------------|------7----10--15--7----7----5----5---7----7---|
B|-1---0-------1---0-------1---0-------1---0----0---------|-----------------------------------------------|
G|---------2-----------2-----------2-----------------2----|-4----4----7---12--4----4----2----2---4--------|
D|--------------------------------------------------------|-----------------------------------------------|
A|--------------------------------------------------------|-----------------------------------------------|
E|--------------------------------------------------------|-----------------------------------------------|

E|---------10----------12----------7-----------5---5----7----|-7----10---10--15--7----7----5----5---7--------|
B|-----------------------------------------------------------|-----------------------------------------------|
G|-4---7-------7---9-------9---4-------4---2-------2----4----|-4----7----7---12--4----4----2----2---4----%---|
D|-----------------------------------------------------------|-------------------------------------------%---|
A|-----------------------------------------------------------|-----------------------------------------------|
E|-----------------------------------------------------------|-----------------------------------------------|

E|-7-----10--10---12---12--12--15---12--10-------|---------|---------|---------|---------|
B|-----------------------------------------------|---------|---------|---------|---------|
G|-4-----7---7----9----9---9---12---9---7--------|-%-------|-%-------|-%-------|-%-------|
D|-----------------------------------------------|-%-------|-%-------|-%-------|-%-------|
A|-----------------------------------------------|---------|---------|---------|---------|
E|------------------------------------------0----|---------|---------|---------|---------|

E|---------|---------|---------|---------|---------|---------|---------|---------|---------|
B|---------|---------|---------|---------|---------|---------|---------|---------|---------|
G|-%-------|-%-------|-%-------|-%-------|-%-------|-%-------|-%-------|-%-------|-%-------|
D|-%-------|-%-------|-%-------|-%-------|-%-------|-%-------|-%-------|-%-------|-%-------|
A|---------|---------|---------|---------|---------|---------|---------|---------|---------|
E|---------|---------|---------|---------|---------|---------|---------|---------|---------|

E|---------|---------|---------|---------|---------|---------|---------|---------|---------|
B|---------|---------|---------|---------|---------|---------|---------|---------|---------|
G|-%-------|-%-------|-%-------|-%-------|-%-------|-%-------|-%-------|-%-------|-%-------|
D|-%-------|-%-------|-%-------|-%-------|-%-------|-%-------|-%-------|-%-------|-%-------|
A|---------|---------|---------|---------|---------|---------|---------|---------|---------|
E|---------|---------|---------|---------|---------|---------|---------|---------|---------|

E|---------|---------|---------|---------|---------|---------|---------|---------|---------|
B|---------|---------|---------|---------|---------|---------|---------|---------|---------|
G|-%-------|-%-------|-%-------|-%-------|-%-------|-%-------|-%-------|-%-------|-%-------|
D|-%-------|-%-------|-%-------|-%-------|-%-------|-%-------|-%-------|-%-------|-%-------|
A|---------|---------|---------|---------|---------|---------|---------|---------|---------|
E|---------|---------|---------|---------|---------|---------|---------|---------|---------|

E|---------|---------|---------|---------|---------|---------|---------|---------|---------|
B|---------|---------|---------|---------|---------|---------|---------|---------|---------|
G|-%-------|-%-------|-%-------|-%-------|-%-------|-%-------|-%-------|-%-------|-%-------|
D|-%-------|-%-------|-%-------|-%-------|-%-------|-%-------|-%-------|-%-------|-%-------|
A|---------|---------|---------|---------|---------|---------|---------|---------|---------|
E|---------|---------|---------|---------|---------|---------|---------|---------|---------|

E|---------|---------|---------|---------|---------|---------|---------|---------|---------|
B|---------|---------|---------|---------|---------|---------|---------|---------|---------|
G|-%-------|-%-------|-%-------|-%-------|-%-------|-%-------|-%-------|-%-------|-%-------|
D|-%-------|-%-------|-%-------|-%-------|-%-------|-%-------|-%-------|-%-------|-%-------|
A|---------|---------|---------|---------|---------|---------|---------|---------|---------|
E|---------|---------|---------|---------|---------|---------|---------|---------|---------|

E|---------|---------|---------|---------|---------|---------|---------|---------|---------|
B|---------|---------|---------|---------|---------|---------|---------|---------|---------|
G|-%-------|-%-------|-%-------|-%-------|-%-------|-%-------|-%-------|-%-------|-%-------|
D|-%-------|-%-------|-%-------|-%-------|-%-------|-%-------|-%-------|-%-------|-%-------|
A|---------|---------|---------|---------|---------|---------|---------|---------|---------|
E|---------|---------|---------|---------|---------|---------|---------|---------|---------|

E|---------|---------|---------|---------|---------|---------|
B|---------|---------|---------|---------|---------|---------|
G|-%-------|-%-------|-%-------|-%-------|-%-------|-%-------|
D|-%-------|-%-------|-%-------|-%-------|-%-------|-%-------|
A|---------|---------|---------|---------|---------|---------|
E|---------|---------|---------|---------|---------|---------|
Black Sabbath - Fairies Wear Boots
Black Sabbath - Fairies Wear Boots.gp3