Black Sabbath - Fairies Wear Boots (2)

Black Sabbath - Fairies Wear Boots (2)

Black Sabbath



Title: Faries wears boots (intro)
Album: Paranoid
Artist: Black Sabbath
Author: 

Track 1: Guitar 1
E|---------------------------------|-------------------------------------|---------------------------------|
B|---------------------------------|-------------------------------------|---------------------------------|
G|-----------------3---------------|-----------3-------------------------|-----------------3---------------|
D|------------3---------5-----5----|------3---------5-----5----3----5----|------------3---------5-----5----|
A|-------5-------------------------|-5-----------------------------------|-------5-------------------------|
E|-3-------------------------------|-------------------------------------|-3-------------------------------|

E|-------------------------------------|---------------------------------|-------------------------------------|
B|-------------------------------------|---------------------------------|-------------------------------------|
G|-----------3-------------------------|-----------------3---------------|-----------3-------------------------|
D|------3---------5-----5----3----5----|------------3---------5-----5----|------3---------5-----5----3----5----|
A|-5-----------------------------------|-------5-------------------------|-5-----------------------------------|
E|-------------------------------------|-3-------------------------------|-------------------------------------|

E|---------------------------------|-------------------------------------|-------------------------------------|
B|---------------------------------|-------------------------------------|-------------------------------------|
G|-----------------3---------------|-----------3---------%----3----------|-------5----%----5----4---------4----|
D|------------3---------5-----5----|------3---------5----%---------5-----|-7----------%--------------7---------|
A|-------5-------------------------|-5-----------------------------------|-------------------------------------|
E|-3-------------------------------|-------------------------------------|-------------------------------------|

E|---------------------------------|-------------------------------------|---------------------------------|
B|---------------------------------|-------------------------------------|---------------------------------|
G|-4-------------------------------|-------5----%----5----4---------4----|-4-------------------------------|
D|------7----5-----5----7----7-----|-7----------%--------------7---------|------7----5-----5----7----7-----|
A|---------------------------------|-------------------------------------|---------------------------------|
E|---------------------------------|-------------------------------------|---------------------------------|

E|-------------------------------------|---------------------------------|-----------------------------------------|
B|-------------------------------------|---------------------------------|-----------------------------------------|
G|-----------------5----4---------4----|-4-------------------------------|-5----4---------5----4---------5----4----|
D|-----------5---------------7---------|------7----5-----5----7----7-----|-----------7--------------7--------------|
A|-5----7------------------------------|---------------------------------|-----------------------------------------|
E|-------------------------------------|---------------------------------|-----------------------------------------|

E|---------------------------------|-7---------10--------10---12----------|-7---------5---------5----7-----------|
B|---------------------------------|--------------------------------------|--------------------------------------|
G|------5----4---------4-----------|-4----%----7----%----7----9-----%-----|-4----%----2----%----2----4-----%-----|
D|-7--------------7----------7-----|------%---------%---------------%-----|------%---------%---------------%-----|
A|---------------------------------|--------------------------------------|--------------------------------------|
E|---------------------------------|--------------------------------------|--------------------------------------|

E|-7----10---10---10---10---12---12---12---|-7----7----7----5----5-----7-----|-7---------10--------10---12----------|
B|-----------------------------------------|---------------------------------|--------------------------------------|
G|-4----7----7----7----7----9----9----9----|-4----4----4----2----2-----4-----|-4----%----7----%----7----9-----%-----|
D|-----------------------------------------|---------------------------------|------%---------%---------------%-----|
A|-----------------------------------------|---------------------------------|--------------------------------------|
E|-----------------------------------------|---------------------------------|--------------------------------------|

E|-7---------5---------5----7-----------|-7----------10---------12----|-12----15----12-----|
B|--------------------------------------|-----------------------------|--------------------|
G|-4----%----2----%----2----4-----%-----|-4-----%----7-----%----9-----|-9-----12----9------|
D|------%---------%---------------%-----|-------%----------%----------|--------------------|
A|--------------------------------------|-----------------------------|--------------------|
E|--------------------------------------|-----------------------------|--------------------|

E|--------------------|---------|--------------------|---------|--------------------|
B|--------------------|---------|--------------------|---------|--------------------|
G|--------------%-----|-%-------|--------------%-----|-%-------|--------------%-----|
D|-9------7-----%-----|-%-------|--------------%-----|-%-------|-9------7-----%-----|
A|-7------5-----------|---------|-9------7-----------|---------|-7------5-----------|
E|--------------------|---------|-7------5-----------|---------|--------------------|

E|---------|--------------------|--------------------|------------------------------------9----|
B|---------|--------------------|--------------------|-------------------------------9---------|
G|-%-------|--------------%-----|-%------------------|------%--------------9----11-------------|
D|-%-------|--------------%-----|-%------------------|-11---%----9----11-----------------------|
A|---------|-9------7-----------|--------9-----10----|-11--------------------------------------|
E|---------|-7------5-----------|--------7-----8-----|-9---------------------------------------|

E|--------------------|-----------12----12-----12---|-12---9--------------9-------------------|
B|-12----12-----12----|-12---9----------------------|-----------9----12--------12---9----9----|
G|--------------------|-----------------------------|-----------------------------------------|
D|--------------------|-----------------------------|-----------------------------------------|
A|--------------------|-----------------------------|-----------------------------------------|
E|--------------------|-----------------------------|-----------------------------------------|

E|-----------9---------------------|-----------------9-------------------|------------------------------------------9----|
B|------9---------12---------------|------------9---------9----12---9----|-------------------------------------9---------|
G|-11------------------11----11----|-11----11----------------------------|-11--11--9----11--9--------9----11-------------|
D|---------------------------------|-------------------------------------|----------------------11-----------------------|
A|---------------------------------|-------------------------------------|-----------------------------------------------|
E|---------------------------------|-------------------------------------|-----------------------------------------------|

E|------------------------|--------------------|---------|--------------------|---------|
B|-12---9-----------------|--------------------|---------|--------------------|---------|
G|-----------11----9------|--------------%-----|-%-------|--------------%-----|-%-------|
D|------------------------|-9------7-----%-----|-%-------|--------------%-----|-%-------|
A|------------------------|-7------5-----------|---------|-9------7-----------|---------|
E|------------------------|--------------------|---------|-7------5-----------|---------|

E|--------------------|---------|--------------------|---------|-----------------------------|
B|--------------------|---------|--------------------|---------|-----------------------------|
G|--------------%-----|-%-------|--------------%-----|-%-------|-----------------------------|
D|-9------7-----%-----|-%-------|--------------%-----|-%-------|-5-----5----8-----8----5-----|
A|-7------5-----------|---------|-9------7-----------|---------|-5-----5----8-----8----5-----|
E|--------------------|---------|-7------5-----------|---------|-3-----3----6-----6----3-----|

E|-3---------------------------|-----------------3-----------|--------------------------|
B|-3---------------------------|-----------------3-----------|--------------------------|
G|-3---------------------------|-----------------3-----------|--------------------------|
D|--------5----5-----5----8----|-8----8----5------------5----|-3--5-----3--5------5-----|
A|--------5----5-----5----8----|-8----8----5------------5----|--------------------------|
E|--------3----3-----3----6----|-6----6----3------------3----|--------------------------|

E|----------------------------|---------|---------|-----------------------------|-----------------------------|
B|----------------------------|---------|---------|-3----------6----------8-----|------10-----3----------6----|
G|----------------------------|---------|---------|-5-----%----8-----%----10----|-%----12-----5-----%----8----|
D|------------3---------------|---------|---------|-------%----------%----------|-%-----------------%---------|
A|-3----5----------5------5---|---------|---------|-----------------------------|-----------------------------|
E|----------------------------|-3-------|-3-------|-----------------------------|-----------------------------|

E|-----------------------------|-----------------------------|---------|-----------------15---------------|
B|-6---------8----------10-----|-3----------6----------8-----|-10------|-10---------15--------18----18----|
G|-8----%----10----%----12-----|-5-----%----8-----%----10----|-12------|-12----17-------------------------|
D|------%----------%-----------|-------%----------%----------|---------|----------------------------------|
A|-----------------------------|-----------------------------|---------|----------------------------------|
E|-----------------------------|-----------------------------|---------|----------------------------------|

E|---------------------------18----|-18-----15---18---15--------18---15--------|--------------------------15------------------------|
B|-18----18--18----18--------------|-----------------------18-------------18---|-18---15-------------15--------18---15--------------|
G|----------------------15---------|-------------------------------------------|-----------17---17-----------------------17---15----|
D|---------------------------------|-------------------------------------------|----------------------------------------------------|
A|---------------------------------|-------------------------------------------|----------------------------------------------------|
E|---------------------------------|-------------------------------------------|----------------------------------------------------|

E|-----------15------------------------------|-----------------------------|-----------------------------------------------|
B|------15--------18---15--------------------|-3---------------------------|-----------6------------------------------6----|
G|-17-----------------------17---15----------|-3---------------------3-----|-7----7---------5----5----3-----7----7---------|
D|-------------------------------------5-----|-------5----3----5-----------|-----------------------------------------------|
A|-------------------------------------------|-----------------------------|-----------------------------------------------|
E|-------------------------------------------|-----------------------------|-----------------------------------------------|

E|-----------------------------|-----------3-----------------------------------3----|
B|-3---------------------------|------3---------6----3--------------------3---------|
G|-3---------------------3-----|-5------------------------5----3-----5--------------|
D|-------5----3----5-----------|----------------------------------------------------|
A|-----------------------------|----------------------------------------------------|
E|-----------------------------|----------------------------------------------------|

E|------------------------------------------|-----------------------------------------------|
B|---------------------------6--------------|-----------------6-----------------------------|
G|-5----5----5-----7----7---------5----5----|-3-----7----7---------5----3----5----3---------|
D|------------------------------------------|------------------------------------------5----|
A|------------------------------------------|-----------------------------------------------|
E|------------------------------------------|-----------------------------------------------|

E|-----------------------------------------------|-----------------------------------------------|
B|-6----3-------------------------6--------------|-----------------6-----------------------------|
G|-----------5----3-----7----7---------5----5----|-3-----7----7---------5----3----5----3---------|
D|-----------------------------------------------|------------------------------------------5----|
A|-----------------------------------------------|-----------------------------------------------|
E|-----------------------------------------------|-----------------------------------------------|

E|--------------------------|----------------------------|---------|-------------------------------------------------------------|
B|--------------------------|----------------------------|---------|-------------------------------------------------------------|
G|--------------------------|----------------------------|---------|-------------------------------------------------------------|
D|-3--5-----3--5------5-----|------------3---------------|---------|-------------------------------------------------------------|
A|--------------------------|-3----5----------5------5---|---------|-------------------------------------------------------------|
E|--------------------------|----------------------------|-3-------|-3----3----3----3----3----3----3----3----3----3----3----3----|

E|-------------------------------------------------------------|-------------------------------------------------------------|
B|-------------------------------------------------------------|-------------------------------------------------------------|
G|-------------------------------------------------------------|-------------------------------------------------------------|
D|-------------------------------------------------------------|-------------------------------------------------------------|
A|-------------------------------------------------------------|-------------------------------------------------------------|
E|-3----3----3----3----3----3----3----3----3----3----3----3----|-3----3----3----3----3----3----3----3----3----3----3----3----|

E|-------------------------------------------------------------|-------------------------------------|
B|-------------------------------------------------------------|-------------------------------------|
G|-------------------------------------------------------------|-------5----%----5----4---------4----|
D|-------------------------------------------------------------|-7----------%--------------7---------|
A|-------------------------------------------------------------|-------------------------------------|
E|-3----3----3----3----3----3----3----3----3----3----3----3----|-------------------------------------|

E|---------------------------------|-------------------------------------|---------------------------------|
B|---------------------------------|-------------------------------------|---------------------------------|
G|-4-------------------------------|-------5----%----5----4---------4----|-4-------------------------------|
D|------7----5-----5----7----7-----|-7----------%--------------7---------|------7----5-----5----7----7-----|
A|---------------------------------|-------------------------------------|---------------------------------|
E|---------------------------------|-------------------------------------|---------------------------------|

E|-------------------------------------|---------------------------------|-----------------------------------------|
B|-------------------------------------|---------------------------------|-----------------------------------------|
G|-----------------5----4---------4----|-4-------------------------------|-5----4---------5----4---------5----4----|
D|-----------5---------------7---------|------7----5-----5----7----7-----|-----------7--------------7--------------|
A|-5----7------------------------------|---------------------------------|-----------------------------------------|
E|-------------------------------------|---------------------------------|-----------------------------------------|

E|---------------------------------|-7---------10--------10---12----------|-7---------5---------5----7-----------|
B|---------------------------------|--------------------------------------|--------------------------------------|
G|------5----4---------4-----------|-4----%----7----%----7----9-----%-----|-4----%----2----%----2----4-----%-----|
D|-7--------------7----------7-----|------%---------%---------------%-----|------%---------%---------------%-----|
A|---------------------------------|--------------------------------------|--------------------------------------|
E|---------------------------------|--------------------------------------|--------------------------------------|

E|-7----10---10---10---10---12---12---12---|-7----7----7----5----5-----7-----|-7---------10--------10---12----------|
B|-----------------------------------------|---------------------------------|--------------------------------------|
G|-4----7----7----7----7----9----9----9----|-4----4----4----2----2-----4-----|-4----%----7----%----7----9-----%-----|
D|-----------------------------------------|---------------------------------|------%---------%---------------%-----|
A|-----------------------------------------|---------------------------------|--------------------------------------|
E|-----------------------------------------|---------------------------------|--------------------------------------|

E|-7---------5---------5----7-----------|-7----------10---------12----|-12----15----12-----|
B|--------------------------------------|-----------------------------|--------------------|
G|-4----%----2----%----2----4-----%-----|-4-----%----7-----%----9-----|-9-----12----9------|
D|------%---------%---------------%-----|-------%----------%----------|--------------------|
A|--------------------------------------|-----------------------------|--------------------|
E|--------------------------------------|-----------------------------|--------------------|

E|--------------------|---------|--------------------|---------|--------------------|
B|--------------------|---------|--------------------|---------|--------------------|
G|--------------%-----|-%-------|--------------%-----|-%-------|--------------%-----|
D|-9------7-----%-----|-%-------|--------------%-----|-%-------|-9------7-----%-----|
A|-7------5-----------|---------|-9------7-----------|---------|-7------5-----------|
E|--------------------|---------|-7------5-----------|---------|--------------------|

E|---------|--------------------|---------|-----------------------------|-3---------------------------|
B|---------|--------------------|---------|-----------------------------|-3---------------------------|
G|-%-------|--------------%-----|-%-------|-----------------------------|-3---------------------------|
D|-%-------|--------------%-----|-%-------|-5-----5----8-----8----5-----|--------5----5-----5----8----|
A|---------|-9------7-----------|---------|-5-----5----8-----8----5-----|--------5----5-----5----8----|
E|---------|-7------5-----------|---------|-3-----3----6-----6----3-----|--------3----3-----3----6----|

E|-----------------3-----------|--------------------------|----------------------------|
B|-----------------3-----------|--------------------------|----------------------------|
G|-----------------3-----------|--------------------------|----------------------------|
D|-8----8----5------------5----|-3--5-----3--5------5-----|------------3---------------|
A|-8----8----5------------5----|--------------------------|-3----5----------5------5---|
E|-6----6----3------------3----|--------------------------|----------------------------|

E|---------|-5----6---------5--------------5----6---------5--------------|-5----6---------5--------------5----6---------5--------------|
B|---------|-----------8---------6----8--------------8---------6----8----|-----------8---------6----8--------------8---------6----8----|
G|---------|-------------------------------------------------------------|-------------------------------------------------------------|
D|---------|-------------------------------------------------------------|-------------------------------------------------------------|
A|---------|-------------------------------------------------------------|-------------------------------------------------------------|
E|-3-------|-------------------------------------------------------------|-------------------------------------------------------------|

E|-5----6---------5--------------5----6---------5--------------|-5----6---------5--------------5----6---------5--------------|
B|-----------8---------6----8--------------8---------6----8----|-----------8---------6----8--------------8---------6----8----|
G|-------------------------------------------------------------|-------------------------------------------------------------|
D|-------------------------------------------------------------|-------------------------------------------------------------|
A|-------------------------------------------------------------|-------------------------------------------------------------|
E|-------------------------------------------------------------|-------------------------------------------------------------|

E|-5----6---------5--------------5----6---------5--------------|-5----6---------5--------------5----6---------5--------------|
B|-----------8---------6----8--------------8---------6----8----|-----------8---------6----8--------------8---------6----8----|
G|-------------------------------------------------------------|-------------------------------------------------------------|
D|-------------------------------------------------------------|-------------------------------------------------------------|
A|-------------------------------------------------------------|-------------------------------------------------------------|
E|-------------------------------------------------------------|-------------------------------------------------------------|

E|-5----6---------5--------------5----6---------5--------------|-5----6---------5--------------5----6---------5--------------|
B|-----------8---------6----8--------------8---------6----8----|-----------8---------6----8--------------8---------6----8----|
G|-------------------------------------------------------------|-------------------------------------------------------------|
D|-------------------------------------------------------------|-------------------------------------------------------------|
A|-------------------------------------------------------------|-------------------------------------------------------------|
E|-------------------------------------------------------------|-------------------------------------------------------------|
Black Sabbath - Fairies Wear Boots (2)
Black Sabbath - Fairies Wear Boots (2).gp3