Black Sabbath - Fluff

Black Sabbath - Fluff

Black Sabbath



Title: Fluff
Album: 
Artist: Black Sabbath
Author: 

Track 1: guitare acoustique
E|----------------2-----------------------------2--------------|----------------2-----------------------------2--------------|
B|-----------3---------3-------------------3---------3---------|-----------0---------0-------------------0---------0---------|
G|------2-------------------2---------2-------------------2----|------0-------------------0---------0-------------------0----|
D|-0-----------------------------0-----------------------------|-0-----------------------------0-----------------------------|
A|-------------------------------------------------------------|-------------------------------------------------------------|
E|-------------------------------------------------------------|-------------------------------------------------------------|

E|----------------2-----------------------------2--------------|----------------2-----------------------------2--------------|
B|-----------3---------3-------------------3---------3---------|-----------0---------0-------------------0---------0---------|
G|------2-------------------2---------2-------------------2----|------0-------------------0---------0-------------------0----|
D|-0-----------------------------0-----------------------------|-0-----------------------------0-----------------------------|
A|-------------------------------------------------------------|-------------------------------------------------------------|
E|-------------------------------------------------------------|-------------------------------------------------------------|

E|----------------2-----------------------------2--------------|----------------2-----------------------------2----2----3----|
B|-----------3---------3-------------------3---------3---------|-----------0---------0-------------------0-------------------|
G|------2-------------------2---------2-------------------2----|------0-------------------0---------0------------------------|
D|-0-----------------------------0-----------------------------|-0-----------------------------0-----------------------------|
A|-------------------------------------------------------------|-------------------------------------------------------------|
E|-------------------------------------------------------------|-------------------------------------------------------------|

E|----------------0-----------------------------0--------------|----------------0-----------------------------0--------------|
B|-----------0---------0-------------------0---------0---------|-----------0---------0-------------------0---------0---------|
G|------7-------------------7---------7-------------------7----|------7-------------------7---------7-------------------7----|
D|-5-----------------------------5-----------------------------|-5-----------------------------5-----------------------------|
A|-------------------------------------------------------------|-------------------------------------------------------------|
E|-------------------------------------------------------------|-------------------------------------------------------------|

E|-------------------------------------|-------------------------------------|----------------0-----------------------------0--------------|
B|-------------------8-----------------|-------------------8-----------------|-----------0---------0-------------------0---------0---------|
G|-------------9-----------9-----------|-------------9-----------9-----------|------7-------------------7---------7-------------------7----|
D|-------7-----------------------7-----|-------7-----------------------7-----|-5-----------------------------5-----------------------------|
A|-0-----------------------------------|-0-----------------------------------|-------------------------------------------------------------|
E|-------------------------------------|-------------------------------------|-------------------------------------------------------------|

E|----------------0-----------------------------0--------------|-------------------------------------|
B|-----------0---------0-------------------0---------0---------|-------------------8-----------------|
G|------7-------------------7---------7-------------------7----|-------------9-----------9-----------|
D|-5-----------------------------5-----------------------------|-------7-----------------------7-----|
A|-------------------------------------------------------------|-0-----------------------------------|
E|-------------------------------------------------------------|-------------------------------------|

E|-------------------------------------|----------------2-----------------------------2--------------|
B|-------------------8-----------------|-----------3---------3-------------------3---------3---------|
G|-------------9-----------9-----------|------2-------------------2---------2-------------------2----|
D|-------7-----------------------7-----|-0-----------------------------0-----------------------------|
A|-0-----------------------------------|-------------------------------------------------------------|
E|-------------------------------------|-------------------------------------------------------------|

E|----------------2-----------------------------2--------------|----------------2-----------------------------2--------------|
B|-----------0---------0-------------------0---------0---------|-----------3---------3-------------------3---------3---------|
G|------0-------------------0---------0-------------------0----|------2-------------------2---------2-------------------2----|
D|-0-----------------------------0-----------------------------|-0-----------------------------0-----------------------------|
A|-------------------------------------------------------------|-------------------------------------------------------------|
E|-------------------------------------------------------------|-------------------------------------------------------------|

E|----------------2-----------------------------2--------------|----------------0-----------------------------0--------------|
B|-----------0---------0-------------------0---------0---------|-----------0---------0-------------------0---------0---------|
G|------0-------------------0---------0-------------------0----|------7-------------------7---------7-------------------7----|
D|-0-----------------------------0-----------------------------|-5-----------------------------5-----------------------------|
A|-------------------------------------------------------------|-------------------------------------------------------------|
E|-------------------------------------------------------------|-------------------------------------------------------------|

E|----------------0-----------------------------0--------------|-------------------------------------|
B|-----------0---------0-------------------0---------0---------|-------------------8-----------------|
G|------7-------------------7---------7-------------------7----|-------------9-----------9-----------|
D|-5-----------------------------5-----------------------------|-------7-----------------------7-----|
A|-------------------------------------------------------------|-0-----------------------------------|
E|-------------------------------------------------------------|-------------------------------------|

E|-------------------------------------|----------------0-----------------------------0--------------|
B|-------------------8-----------------|-----------0---------0-------------------0---------0---------|
G|-------------9-----------9-----------|------7-------------------7---------7-------------------7----|
D|-------7-----------------------7-----|-5-----------------------------5-----------------------------|
A|-0-----------------------------------|-------------------------------------------------------------|
E|-------------------------------------|-------------------------------------------------------------|

E|----------------0-----------------------------0--------------|-------------------------------------|
B|-----------0---------0-------------------0---------0---------|-------------------8-----------------|
G|------7-------------------7---------7-------------------7----|-------------9-----------9-----------|
D|-5-----------------------------5-----------------------------|-------7-----------------------7-----|
A|-------------------------------------------------------------|-0-----------------------------------|
E|-------------------------------------------------------------|-------------------------------------|

E|-------------------------------------|----------------2-----------------------------2--------------|
B|-------------------8-----------------|-----------3---------3-------------------3---------3---------|
G|-------------9-----------9-----------|------2-------------------2---------2-------------------2----|
D|-------7-----------------------7-----|-0-----------------------------0-----------------------------|
A|-0-----------------------------------|-------------------------------------------------------------|
E|-------------------------------------|-------------------------------------------------------------|

E|----------------2-----------------------------2--------------|----------------2-----------------------------2--------------|
B|-----------0---------0-------------------0---------0---------|-----------3---------3-------------------3---------3---------|
G|------0-------------------0---------0-------------------0----|------2-------------------2---------2-------------------2----|
D|-0-----------------------------0-----------------------------|-0-----------------------------0-----------------------------|
A|-------------------------------------------------------------|-------------------------------------------------------------|
E|-------------------------------------------------------------|-------------------------------------------------------------|

E|----------------2-----------------------------2--------------|----------------2-----------------------------2--------------|
B|-----------0---------0-------------------0---------0---------|-----------3---------3-------------------3---------3---------|
G|------0-------------------0---------0-------------------0----|------2-------------------2---------2-------------------2----|
D|-0-----------------------------0-----------------------------|-0-----------------------------0-----------------------------|
A|-------------------------------------------------------------|-------------------------------------------------------------|
E|-------------------------------------------------------------|-------------------------------------------------------------|

E|----------------2-----------------------------2--------------|----------------2-----------------------------2--------------|
B|-----------0---------0-------------------0---------0---------|-----------3---------3-------------------3---------3---------|
G|------0-------------------0---------0-------------------0----|------2-------------------2---------2-------------------2----|
D|-0-----------------------------0-----------------------------|-0-----------------------------0-----------------------------|
A|-------------------------------------------------------------|-------------------------------------------------------------|
E|-------------------------------------------------------------|-------------------------------------------------------------|

E|----------------2-----------------------------2--------------|----------------0-----------------------------0--------------|
B|-----------0---------0-------------------0---------0---------|-----------0---------0-------------------0---------0---------|
G|------0-------------------0---------0-------------------0----|------7-------------------7---------7-------------------7----|
D|-0-----------------------------0-----------------------------|-5-----------------------------5-----------------------------|
A|-------------------------------------------------------------|-------------------------------------------------------------|
E|-------------------------------------------------------------|-------------------------------------------------------------|

E|----------------0-----------------------------0--------------|-------------------------------------|
B|-----------0---------0-------------------0---------0---------|-------------------8-----------------|
G|------7-------------------7---------7-------------------7----|-------------9-----------9-----------|
D|-5-----------------------------5-----------------------------|-------7-----------------------7-----|
A|-------------------------------------------------------------|-0-----------------------------------|
E|-------------------------------------------------------------|-------------------------------------|

E|-------------------------------------|----------------0-----------------------------0--------------|
B|-------------------8-----------------|-----------0---------0-------------------0---------0---------|
G|-------------9-----------9-----------|------7-------------------7---------7-------------------7----|
D|-------7-----------------------7-----|-5-----------------------------5-----------------------------|
A|-0-----------------------------------|-------------------------------------------------------------|
E|-------------------------------------|-------------------------------------------------------------|

E|----------------0-----------------------------0--------------|-------------------------------------|
B|-----------0---------0-------------------0---------0---------|-------------------8-----------------|
G|------7-------------------7---------7-------------------7----|-------------9-----------9-----------|
D|-5-----------------------------5-----------------------------|-------7-----------------------7-----|
A|-------------------------------------------------------------|-0-----------------------------------|
E|-------------------------------------------------------------|-------------------------------------|

E|-------------------------------------|---------|
B|-------------------8-----------------|---------|
G|-------------9-----------9-----------|-2-------|
D|-------7-----------------------7-----|-0-------|
A|-0-----------------------------------|-0-------|
E|-------------------------------------|---------|
Black Sabbath - Fluff
Black Sabbath - Fluff.gp3