Black Sabbath - Heaven and Hell

Black Sabbath - Heaven and Hell

Black Sabbath



Title: Heaven and Hell
Album: 
Artist: Black Sabbath
Author: Black Sabbath

Track 1: Guitar
D#|--------------------|----------------------------------|--------------------|-------------------------|
A#|--------------------|------------3---3------------3----|--------------------|-------------------------|
F#|--------------------|--------%---2---2----%---X---2----|--------------------|-----%-------------------|
C#|-9------11----12----|-5------%---0---0----%---X---0----|-9------11----12----|-14--%---12--11--9-------|
G#|-7------9-----10----|-3--------------------------------|-7------9-----10----|-12------10--9---7-------|
D#|--------------------|----------------------------------|--------------------|-------------------------|

D#|--------------------|----------------------------------|--------------------|----------------------------------------|
A#|--------------------|------------3---3--------3---3----|--------------------|----------------------------------------|
F#|--------------------|--------%---2---2----%---2---2----|--------------------|-----%----------------------------------|
C#|-9------11----12----|-5------%---0---0----%---0---0----|-9------11----12----|-14--%---12--11--9--------------0---2---|
G#|-7------9-----10----|-3--------------------------------|-7------9-----10----|-12------10--9---7------0---2-----------|
D#|--------------------|----------------------------------|--------------------|----------------------------------------|

D#|---------|---------|---------|---------|---------|---------|---------|---------|
A#|---------|---------|---------|---------|---------|---------|---------|---------|
F#|---------|---------|-%-------|-%-------|-%-------|-%-------|-%-------|-%-------|
C#|-9-------|-9-------|-%-------|-%-------|-%-------|-%-------|-%-------|-%-------|
G#|-7-------|-7-------|---------|---------|---------|---------|---------|---------|
D#|---------|---------|---------|---------|---------|---------|---------|---------|

D#|---------|---------|---------|---------|---------|---------|----------------------------------------------------|
A#|---------|---------|---------|---------|---------|---------|----------------------------------------------12----|
F#|-%-------|-%-------|-%-------|-%-------|-5-------|-7-------|-----%----------------------------%-----------12----|
C#|-%-------|-%-------|-%-------|-%-------|-5-------|-7-------|-----%----------------------------%-----------12----|
G#|---------|---------|---------|---------|-3-------|-5-------|-----------------9---10--7--------------------------|
D#|---------|---------|---------|---------|---------|---------|-0-------0---0----------------0-------0---0---------|

D#|--------------------------------------------------------|----------------------------------------------------|
A#|--------------------------------------------------------|----------------------------------------------12----|
F#|-----%----------------------------%----------------%----|-----%----------------------------%-----------12----|
C#|-----%-------------------7--------%----------------%----|-----%----------------------------%-----------12----|
G#|-----------------9---10---------------10--9---7---------|-----------------9---10--7--------------------------|
D#|-0-------0---0----------------0-------------------------|-0-------0---0----------------0-------0---0---------|

D#|--------------------------------------------------------|---------|---------|---------|
A#|--------------------------------------------------------|---------|---------|---------|
F#|-----%----------------------------%----------------%----|---------|---------|-%-------|
C#|-----%-------------------7--------%----------------%----|-9-------|-9-------|-%-------|
G#|-----------------9---10---------------10--9---7---------|-7-------|-7-------|---------|
D#|-0-------0---0----------------0-------------------------|---------|---------|---------|

D#|---------|---------------|---------------|---------------|--------10-----------|
A#|---------|-8-------10----|-10------------|-8-------10----|-10-----8------------|
F#|-%-------|-9-------12----|-11------11----|-9-------12----|-11------------11----|
C#|-%-------|---------------|---------12----|---------------|---------------12----|
G#|---------|---------------|---------------|---------------|---------------------|
D#|---------|---------------|---------------|---------------|---------------------|

D#|---------------|---------------|---------------|--------10-----------|---------|
A#|-8-------10----|-10------------|-8-------10----|-10-----8------------|---------|
F#|-9-------12----|-11------11----|-9-------12----|-11------------11----|-5-------|
C#|---------------|---------12----|---------------|---------------12----|-5-------|
G#|---------------|---------------|---------------|---------------------|-3-------|
D#|---------------|---------------|---------------|---------------------|---------|

D#|---------|---------|---------|---------|---------|--------------------|----------------------------------|
A#|---------|---------|---------|---------|---------|--------------------|------------3---3------------3----|
F#|-7-------|-5-------|-7-------|-5-------|-7-------|--------------------|--------%---2---2----%---X---2----|
C#|-7-------|-5-------|-7-------|-5-------|-7-------|-9------11----12----|-5------%---0---0----%---X---0----|
G#|-5-------|-3-------|-5-------|-3-------|-5-------|-7------9-----10----|-3--------------------------------|
D#|---------|---------|---------|---------|---------|--------------------|----------------------------------|

D#|--------------------|-------------------------|--------------------|----------------------------------|
A#|--------------------|-------------------------|--------------------|------------3---3--------3---3----|
F#|--------------------|-----%-------------------|--------------------|--------%---2---2----%---2---2----|
C#|-9------11----12----|-14--%---12--11--9-------|-9------11----12----|-5------%---0---0----%---0---0----|
G#|-7------9-----10----|-12------10--9---7-------|-7------9-----10----|-3--------------------------------|
D#|--------------------|-------------------------|--------------------|----------------------------------|

D#|--------------------|-------------------------------------------|-5-------|---------|
A#|--------------------|-------------------------------------------|-8-------|-7-------|
F#|--------------------|-----%----------------------%----7----%----|-5-------|-7-------|
C#|-9------11----12----|-14--%---12--11--9-----9----%----5----%----|-5-------|-7-------|
G#|-7------9-----10----|-12------10--9---7-----7-------------------|-7-------|-5-------|
D#|--------------------|-------------------------------------------|-5-------|---------|

D#|-5-------|-3-------|---------|---------|-5-------|-5-------|----------------------------------------------------|
A#|-6-------|-5-------|-8-------|-7-------|-5-------|-5-------|----------------------------------------------12----|
F#|-5-------|-5-------|-7-------|-7-------|-6-------|-6-------|-----%----------------------------%-----------12----|
C#|-7-------|-5-------|-9-------|-7-------|-7-------|-7-------|-----%----------------------------%-----------12----|
G#|-5-------|-3-------|-10------|-5-------|-7-------|-7-------|-----------------9---10--7--------------------------|
D#|-5-------|-3-------|-7-------|---------|-5-------|-5-------|-0-------0---0----------------0-------0---0---------|

D#|--------------------------------------------------------|----------------------------------------------------|
A#|--------------------------------------------------------|----------------------------------------------12----|
F#|-----%----------------------------%----------------%----|-----%----------------------------%-----------12----|
C#|-----%-------------------7--------%----------------%----|-----%----------------------------%-----------12----|
G#|-----------------9---10---------------10--9---7---------|-----------------9---10--7--------------------------|
D#|-0-------0---0----------------0-------------------------|-0-------0---0----------------0-------0---0---------|

D#|--------------------------------------------------------|----------------------------------------------------|
A#|--------------------------------------------------------|----------------------------------------------12----|
F#|-----%----------------------------%----------------%----|-----%----------------------------%-----------12----|
C#|-----%-------------------7--------%----------------%----|-----%----------------------------%-----------12----|
G#|-----------------9---10---------------10--9---7---------|-----------------9---10--7--------------------------|
D#|-0-------0---0----------------0-------------------------|-0-------0---0----------------0-------0---0---------|

D#|--------------------------------------------------------|----------------------------------------------------|
A#|--------------------------------------------------------|----------------------------------------------12----|
F#|-----%----------------------------%----------------%----|-----%----------------------------%-----------12----|
C#|-----%-------------------7--------%----------------%----|-----%----------------------------%-----------12----|
G#|-----------------9---10---------------10--9---7---------|-----------------9---10--7--------------------------|
D#|-0-------0---0----------------0-------------------------|-0-------0---0----------------0-------0---0---------|

D#|--------------------------------------------------------|----------------------------------------------------|
A#|--------------------------------------------------------|----------------------------------------------12----|
F#|-----%----------------------------%----------------%----|-----%----------------------------%-----------12----|
C#|-----%-------------------7--------%----------------%----|-----%----------------------------%-----------12----|
G#|-----------------9---10---------------10--9---7---------|-----------------9---10--7--------------------------|
D#|-0-------0---0----------------0-------------------------|-0-------0---0----------------0-------0---0---------|

D#|--------------------------------------------------------|----------------------------------------------------|
A#|--------------------------------------------------------|----------------------------------------------12----|
F#|-----%----------------------------%----------------%----|-----%----------------------------%-----------12----|
C#|-----%-------------------7--------%----------------%----|-----%----------------------------%-----------12----|
G#|-----------------9---10---------------10--9---7---------|-----------------9---10--7--------------------------|
D#|-0-------0---0----------------0-------------------------|-0-------0---0----------------0-------0---0---------|

D#|--------------------------------------------------------|---------------|---------|
A#|--------------------------------------------------------|---------------|---------|
F#|-----%----------------------------%----------------%----|-5------7------|-9-------|
C#|-----%-------------------7--------%----------------%----|-5------7------|-9-------|
G#|-----------------9---10---------------10--9---7---------|-3------5------|-7-------|
D#|-0-------0---0----------------0-------------------------|---------------|---------|

D#|---------|---------|---------|------------------------|---------------------------|
A#|---------|---------|---------|------------------------|---------------------------|
F#|-9-------|---------|---------|------%----%-----%------|-%------%-----%------------|
C#|-9-------|-7-------|-7-------|------%----%-----%------|-%------%-----%----14--12--|
G#|-7-------|---------|---------|------------------------|---------------------------|
D#|---------|---------|---------|-0----------------------|---------------------------|

D#|---------------------------|-----------------------------------------------------------|
A#|-12--12--12---12-----------|-----------------------------------------------------------|
F#|-12--12--12---12----%------|-12--14------%---12--14------%--------12-----------12------|
C#|--------------------%------|---------14--%-----------14--%---14-------12--14-------12--|
G#|---------------------------|-----------------------------------------------------------|
D#|---------------------------|-----------------------------------------------------------|

D#|----------------------------------|---------|---------|---------|--------------------------------------------------------|
A#|----------------------------------|---------|-15------|-15------|-12--15--15---12----------------------------------------|
F#|----------------------%----%------|-%-------|---------|---------|------------------14--14---12---------------------------|
C#|-12--14--14--14--14---%----%------|-%-------|---------|---------|-------------------------------14--12--14--14---12------|
G#|----------------------------------|---------|---------|---------|----------------------------------------------------14--|
D#|----------------------------------|---------|---------|---------|--------------------------------------------------------|

D#|-----------------------------------------------------|--------------------------------------------------------------|
A#|-----------------------------------------------------|-----------------------------------------12---12--15--15--15--|
F#|-----------------------------------------------------|-------------------------12------12--14-----------------------|
C#|-----------------------------------------------------|-----12--12--12--12--14------14-------------------------------|
G#|-12--14--14---10--12--12---9---10--9----10--9---10---|-14-----------------------------------------------------------|
D#|-----------------------------------------------------|--------------------------------------------------------------|

D#|-12--15--15--15--------------------------------------------------|--------------------------------------------------------|
A#|-----------------12--15--15--15----------------------------------|--------------------------------------------------------|
F#|---------------------------------12--14--14--14--12--14----------|-------------12--14--14--14---12---------------12--12---|
C#|---------------------------------------------------------12--14--|-14--12--14-----------------------14--14---14-----------|
G#|-----------------------------------------------------------------|--------------------------------------------------------|
D#|-----------------------------------------------------------------|--------------------------------------------------------|

D#|------------------------------------------12------|-------12----|------------------14---15---17---15---|
A#|------12---15-------12--15-------12--15-------12--|-15----------|-15----------17-----------------------|
F#|-14-------------14-----------14-------------------|-------------|--------%-----------------------------|
C#|--------------------------------------------------|-------------|--------%-----------------------------|
G#|--------------------------------------------------|-------------|--------------------------------------|
D#|--------------------------------------------------|-------------|--------------------------------------|

D#|----------------------15--17---|-17----17---17---15---14---15---14------------------|
A#|-17---17---17-----17-----------|-------------------------------------17---15---17---|
F#|-------------------------------|----------------------------------------------------|
C#|-------------------------------|----------------------------------------------------|
G#|-------------------------------|----------------------------------------------------|
D#|-------------------------------|----------------------------------------------------|

D#|----------------------|---------|---------|---------|---------|---------|------------------19-------------|
A#|-17----------17-------|-15------|---------|---------|---------|---------|-----------------------17---20---|
F#|---------16------16---|---------|-%-------|-%-------|-%-------|-%-------|-%-----19----19------------------|
C#|----------------------|---------|-%-------|-%-------|-%-------|-%-------|-%-------------------------------|
G#|----------------------|---------|---------|---------|---------|---------|---------------------------------|
D#|----------------------|---------|---------|---------|---------|---------|---------------------------------|

D#|---------|--------22--------------|-------------------------|-----------------------------------------------------|
A#|-20------|-22-----------17---20---|-20------20--------------|-------15--------------------------------------------|
F#|---------|------------------------|-----------------21------|-19--------16--15--14----14--12------12--14--12------|
C#|---------|------------------------|-------------21------21--|---------------------------------14--------------14--|
G#|---------|------------------------|-------------------------|-----------------------------------------------------|
D#|---------|------------------------|-------------------------|-----------------------------------------------------|

D#|------------------------------14--15--14---15---17---17---15--17--|-17---15-----------------------|
A#|----------------------12--15--------------------------------------|----------17--17-----20--22----|
F#|--------------12--14----------------------------------------------|-------------------------------|
C#|-14---12--14------------------------------------------------------|-------------------------------|
G#|------------------------------------------------------------------|-------------------------------|
D#|------------------------------------------------------------------|-------------------------------|

D#|-----------------------------------------|---------|---------|---------|---------|
A#|-22---22---22---22---22---22---22---22---|-8-------|-7-------|-12------|-7-------|
F#|-----------------------------------------|-9-------|-7-------|-12------|-7-------|
C#|-----------------------------------------|-9-------|-7-------|-12------|-7-------|
G#|-----------------------------------------|-7-------|-9-------|-10------|-0-------|
D#|-----------------------------------------|---------|---------|---------|---------|

D#|---------|---------|---------|---------|---------|---------|---------|---------|
A#|-8-------|-7-------|-8-------|-7-------|-12------|-7-------|-8-------|-7-------|
F#|-9-------|-7-------|-9-------|-7-------|-12------|-7-------|-9-------|-7-------|
C#|-9-------|-7-------|-9-------|-7-------|-12------|-7-------|-9-------|-7-------|
G#|-7-------|-9-------|-7-------|-9-------|-10------|-0-------|-7-------|-9-------|
D#|---------|---------|---------|---------|---------|---------|---------|---------|

D#|---------|---------|---------|---------|---------|---------|---------|---------|
A#|-8-------|-7-------|-12------|-7-------|-8-------|-7-------|-12------|-7-------|
F#|-9-------|-7-------|-12------|-7-------|-9-------|-7-------|-12------|-7-------|
C#|-9-------|-7-------|-12------|-7-------|-9-------|-7-------|-12------|-7-------|
G#|-7-------|-9-------|-10------|-0-------|-7-------|-9-------|-10------|-0-------|
D#|---------|---------|---------|---------|---------|---------|---------|---------|

D#|---------|---------|---------|---------|---------|---------|---------|---------|
A#|-8-------|-7-------|-12------|-7-------|-8-------|-7-------|-12------|-7-------|
F#|-9-------|-7-------|-12------|-7-------|-9-------|-7-------|-12------|-7-------|
C#|-9-------|-7-------|-12------|-7-------|-9-------|-7-------|-12------|-7-------|
G#|-7-------|-9-------|-10------|-0-------|-7-------|-9-------|-10------|-0-------|
D#|---------|---------|---------|---------|---------|---------|---------|---------|

D#|---------|---------|
A#|-8-------|-8-------|
F#|-9-------|-9-------|
C#|-9-------|-9-------|
G#|-7-------|-7-------|
D#|---------|---------|
Black Sabbath - Heaven and Hell
Black Sabbath - Heaven and Hell.gp3