Black Sabbath - I Won't Cry For You

Black Sabbath - I Won't Cry For You

Black Sabbath



Title: I Won't Cry For You
Album: Forbidden (1995)
Artist: Black Sabbath
Author: Song by Black Sabbath - Lyrics by Tony Martin

Track 1: Guitar 1
D#|---------|---------|---------|---------|---------|---------|---------|---------|
A#|---------|---------|---------|---------|---------|---------|---------|---------|
F#|-%-------|-%-------|-%-------|-%-------|-%-------|-%-------|-%-------|-%-------|
C#|-%-------|-%-------|-%-------|-%-------|-%-------|-%-------|-%-------|-%-------|
G#|---------|---------|---------|---------|---------|---------|---------|---------|
D#|---------|---------|---------|---------|---------|---------|---------|---------|

D#|---------|---------|---------|---------|---------|---------|---------|---------|
A#|---------|---------|---------|---------|---------|---------|---------|---------|
F#|-%-------|-%-------|-%-------|-%-------|-%-------|-%-------|-%-------|-%-------|
C#|-%-------|-%-------|-%-------|-%-------|-%-------|-%-------|-%-------|-%-------|
G#|---------|---------|---------|---------|---------|---------|---------|---------|
D#|---------|---------|---------|---------|---------|---------|---------|---------|

D#|---------|---------|---------|---------|---------|---------|---------|---------|
A#|---------|---------|---------|---------|---------|---------|---------|---------|
F#|-%-------|-%-------|-%-------|-%-------|-%-------|-%-------|-%-------|-%-------|
C#|-%-------|-%-------|-%-------|-%-------|-%-------|-%-------|-%-------|-%-------|
G#|---------|---------|---------|---------|---------|---------|---------|---------|
D#|---------|---------|---------|---------|---------|---------|---------|---------|

D#|---------|---------|---------|---------|---------|---------|---------|---------|
A#|---------|---------|---------|---------|---------|---------|---------|---------|
F#|-%-------|-%-------|-%-------|-%-------|-%-------|-%-------|-%-------|-%-------|
C#|-%-------|-%-------|-%-------|-%-------|-%-------|-%-------|-%-------|-%-------|
G#|---------|---------|---------|---------|---------|---------|---------|---------|
D#|---------|---------|---------|---------|---------|---------|---------|---------|

D#|---------|---------|---------|---------|------------------------|-----------------------------------------|
A#|---------|---------|---------|---------|------------------------|-----------------------------------------|
F#|-%-------|-%-------|-%-------|-%-------|-12---14----2----2------|-2----10---10---10---10---10---10---10---|
C#|-%-------|-%-------|-%-------|-%-------|-12---14----2----2------|-2----10---10---10---10---10---10---10---|
G#|---------|---------|---------|---------|-10---12----0----0------|-0----8----8----8----8----8----8----8----|
D#|---------|---------|---------|---------|------------------------|-----------------------------------------|

D#|--------------------|---------|------------------------|-----------------------------------------|
A#|--------------------|---------|------------------------|-----------------------------------------|
F#|-10-----2----2------|-2-------|-12---14----2----2------|-2----10---10---10---10---10---10---10---|
C#|-10-----2----2------|-2-------|-12---14----2----2------|-2----10---10---10---10---10---10---10---|
G#|-8------0----0------|-0-------|-10---12----0----0------|-0----8----8----8----8----8----8----8----|
D#|--------------------|---------|------------------------|-----------------------------------------|

D#|--------------------|---------|------------------------|-----------------------------------------|
A#|--------------------|---------|------------------------|-----------------------------------------|
F#|-10-----2----2------|-2-------|-12---14----2----2------|-2----10---10---10---10---10---10---10---|
C#|-10-----2----2------|-2-------|-12---14----2----2------|-2----10---10---10---10---10---10---10---|
G#|-8------0----0------|-0-------|-10---12----0----0------|-0----8----8----8----8----8----8----8----|
D#|--------------------|---------|------------------------|-----------------------------------------|

D#|--------------------|---------|------------------------|-----------------------------------------|
A#|--------------------|---------|------------------------|-----------------------------------------|
F#|-10-----2----2------|-2-------|-12---14----2----2------|-2----10---10---10---10---10---10---10---|
C#|-10-----2----2------|-2-------|-12---14----2----2------|-2----10---10---10---10---10---10---10---|
G#|-8------0----0------|-0-------|-10---12----0----0------|-0----8----8----8----8----8----8----8----|
D#|--------------------|---------|------------------------|-----------------------------------------|

D#|--------------------|---------|---------|---------|---------|---------------------------------------------|
A#|--------------------|---------|---------|---------|---------|---------------------------------------------|
F#|-10-----2----2------|-2-------|-%-------|-%-------|-%-------|-7----7---5-----%---8----7----5---------8----|
C#|-10-----2----2------|-2-------|-%-------|-%-------|-%-------|----------------%------------------7---------|
G#|-8------0----0------|-0-------|---------|---------|---------|---------------------------------------------|
D#|--------------------|---------|---------|---------|---------|---------------------------------------------|

D#|-----------------------------|---------------|---------|---------|---------|---------|
A#|-----------------------------|---------------|---------|---------|---------|---------|
F#|-7----5----------------------|--------%------|-%-------|-%-------|-%-------|-%-------|
C#|-----------7------7----7-----|-7------%------|-%-------|-%-------|-%-------|-%-------|
G#|-----------------------------|---------------|---------|---------|---------|---------|
D#|-----------------------------|---------------|---------|---------|---------|---------|

D#|-----------------------|------8--------------------------|---------|---------|---------|
A#|--------8--10---10-----|-10---------10-------------------|---------|---------|---------|
F#|-%---------------------|------------------7--9----9------|-%-------|-%-------|-%-------|
C#|-%---------------------|---------------------------------|-%-------|-%-------|-%-------|
G#|-----------------------|---------------------------------|---------|---------|---------|
D#|-----------------------|---------------------------------|---------|---------|---------|

D#|---------|---------|---------|----------------------|-----------------------------|
A#|---------|---------|---------|----------------------|-----------------------------|
F#|-%-------|-%-------|-%-------|-5---4----------------|-----------------4-----4-----|
C#|-%-------|-%-------|-%-------|---------7----7-------|-7-----5----7----------------|
G#|---------|---------|---------|----------------------|-----------------------------|
D#|---------|---------|---------|----------------------|-----------------------------|

D#|---------------|---------|---------|---------|-----------------0---------------|
A#|---------------|---------|---------|---------|------------3---------3----------|
F#|-4-----%-------|-%-------|-%-------|-%-------|-------2-------------------2-----|
C#|-------%-------|-%-------|-%-------|-%-------|-0-------------------------------|
G#|---------------|---------|---------|---------|---------------------------------|
D#|---------------|---------|---------|---------|---------------------------------|

D#|---------------|-5-------|-5----------------------|---------|---------|-5-------|
A#|---------------|---------|-------0----1-----------|---------|---------|---------|
F#|---------------|-5-------|-----------------2------|---------|---------|-5-------|
C#|-3------5------|-7-------|------------------------|-7-------|---------|-7-------|
G#|---------------|-7-------|-7----------------------|-5-------|-3-------|-7-------|
D#|---------------|---------|------------------------|---------|-1-------|---------|

D#|-5-------|-----------------0---------------|------------------------|---------|---------|
A#|---------|------------3---------3----------|------------------------|---------|---------|
F#|-5-------|-------2-------------------2-----|------------------------|---------|---------|
C#|---------|-0-------------------------------|-5------4---------------|-3-------|-3-------|
G#|-7-------|---------------------------------|-3------2-----0---------|-3-------|-3-------|
D#|---------|---------------------------------|-------------------3----|-1-------|-1-------|

D#|------------------------|-----------------------------------------|--------------------|
A#|------------------------|-----------------------------------------|--------------------|
F#|-12---14----2----2------|-2----10---10---10---10---10---10---10---|-10-----2----2------|
C#|-12---14----2----2------|-2----10---10---10---10---10---10---10---|-10-----2----2------|
G#|-10---12----0----0------|-0----8----8----8----8----8----8----8----|-8------0----0------|
D#|------------------------|-----------------------------------------|--------------------|

D#|---------|------------------------|-----------------------------------------|--------------------|
A#|---------|------------------------|-----------------------------------------|--------------------|
F#|-2-------|-12---14----2----2------|-2----10---10---10---10---10---10---10---|-10-----2----2------|
C#|-2-------|-12---14----2----2------|-2----10---10---10---10---10---10---10---|-10-----2----2------|
G#|-0-------|-10---12----0----0------|-0----8----8----8----8----8----8----8----|-8------0----0------|
D#|---------|------------------------|-----------------------------------------|--------------------|

D#|---------|------------------------|-----------------------------------------|--------------------|
A#|---------|------------------------|-----------------------------------------|--------------------|
F#|-2-------|-12---14----2----2------|-2----10---10---10---10---10---10---10---|-10-----2----2------|
C#|-2-------|-12---14----2----2------|-2----10---10---10---10---10---10---10---|-10-----2----2------|
G#|-0-------|-10---12----0----0------|-0----8----8----8----8----8----8----8----|-8------0----0------|
D#|---------|------------------------|-----------------------------------------|--------------------|

D#|---------|------------------------|-----------------------------------------|--------------------|
A#|---------|------------------------|-----------------------------------------|--------------------|
F#|-2-------|-12---14----2----2------|-2----10---10---10---10---10---10---10---|-10-----2----2------|
C#|-2-------|-12---14----2----2------|-2----10---10---10---10---10---10---10---|-10-----2----2------|
G#|-0-------|-10---12----0----0------|-0----8----8----8----8----8----8----8----|-8------0----0------|
D#|---------|------------------------|-----------------------------------------|--------------------|

D#|---------|---------|---------|---------|---------|---------|---------|---------|
A#|---------|---------|---------|---------|---------|---------|---------|---------|
F#|-2-------|-7-------|-6-------|-5-------|-4-------|-7-------|-6-------|-5-------|
C#|-2-------|-7-------|-6-------|-5-------|-4-------|-7-------|-6-------|-5-------|
G#|-0-------|-5-------|-4-------|-3-------|-2-------|-5-------|-4-------|-3-------|
D#|---------|---------|---------|---------|---------|---------|---------|---------|

D#|---------|---------|---------|---------|---------|---------|---------|---------|
A#|---------|---------|---------|---------|---------|---------|---------|---------|
F#|-4-------|-7-------|-6-------|-5-------|-4-------|-3-------|-3-------|---------|
C#|-4-------|-7-------|-6-------|-5-------|-4-------|-3-------|-3-------|-2-------|
G#|-2-------|-5-------|-4-------|-3-------|-2-------|-1-------|-1-------|-2-------|
D#|---------|---------|---------|---------|---------|---------|---------|-0-------|

D#|---------|------------------------|-----------------------------------------|--------------------|
A#|---------|------------------------|-----------------------------------------|--------------------|
F#|---------|-12---14----2----2------|-2----10---10---10---10---10---10---10---|-10-----2----2------|
C#|-2-------|-12---14----2----2------|-2----10---10---10---10---10---10---10---|-10-----2----2------|
G#|-2-------|-10---12----0----0------|-0----8----8----8----8----8----8----8----|-8------0----0------|
D#|-0-------|------------------------|-----------------------------------------|--------------------|

D#|---------|------------------------|-----------------------------------------|--------------------|
A#|---------|------------------------|-----------------------------------------|--------------------|
F#|-2-------|-12---14----2----2------|-2----10---10---10---10---10---10---10---|-10-----2----2------|
C#|-2-------|-12---14----2----2------|-2----10---10---10---10---10---10---10---|-10-----2----2------|
G#|-0-------|-10---12----0----0------|-0----8----8----8----8----8----8----8----|-8------0----0------|
D#|---------|------------------------|-----------------------------------------|--------------------|

D#|---------|------------------------|-----------------------------------------|--------------------|
A#|---------|------------------------|-----------------------------------------|--------------------|
F#|-2-------|-12---14----2----2------|-2----10---10---10---10---10---10---10---|-10-----2----2------|
C#|-2-------|-12---14----2----2------|-2----10---10---10---10---10---10---10---|-10-----2----2------|
G#|-0-------|-10---12----0----0------|-0----8----8----8----8----8----8----8----|-8------0----0------|
D#|---------|------------------------|-----------------------------------------|--------------------|

D#|---------|------------------------|-----------------------------------------|--------------------|
A#|---------|------------------------|-----------------------------------------|--------------------|
F#|-2-------|-12---14----2----2------|-2----10---10---10---10---10---10---10---|-10-----2----2------|
C#|-2-------|-12---14----2----2------|-2----10---10---10---10---10---10---10---|-10-----2----2------|
G#|-0-------|-10---12----0----0------|-0----8----8----8----8----8----8----8----|-8------0----0------|
D#|---------|------------------------|-----------------------------------------|--------------------|

D#|---------|------------------------|-----------------------------------------|--------------------|
A#|---------|------------------------|-----------------------------------------|--------------------|
F#|-2-------|-12---14----2----2------|-2----10---10---10---10---10---10---10---|-10-----2----2------|
C#|-2-------|-12---14----2----2------|-2----10---10---10---10---10---10---10---|-10-----2----2------|
G#|-0-------|-10---12----0----0------|-0----8----8----8----8----8----8----8----|-8------0----0------|
D#|---------|------------------------|-----------------------------------------|--------------------|

D#|---------|------------------------|-----------------------------------------|--------------------|
A#|---------|------------------------|-----------------------------------------|--------------------|
F#|-2-------|-12---14----2----2------|-2----10---10---10---10---10---10---10---|-10-----2----2------|
C#|-2-------|-12---14----2----2------|-2----10---10---10---10---10---10---10---|-10-----2----2------|
G#|-0-------|-10---12----0----0------|-0----8----8----8----8----8----8----8----|-8------0----0------|
D#|---------|------------------------|-----------------------------------------|--------------------|

D#|---------|------------------------|-----------------------------------------|--------------------|
A#|---------|------------------------|-----------------------------------------|--------------------|
F#|-2-------|-12---14----2----2------|-2----10---10---10---10---10---10---10---|-10-----2----2------|
C#|-2-------|-12---14----2----2------|-2----10---10---10---10---10---10---10---|-10-----2----2------|
G#|-0-------|-10---12----0----0------|-0----8----8----8----8----8----8----8----|-8------0----0------|
D#|---------|------------------------|-----------------------------------------|--------------------|

D#|---------|------------------------|-----------------------------------------|--------------------|
A#|---------|------------------------|-----------------------------------------|--------------------|
F#|-2-------|-12---14----2----2------|-2----10---10---10---10---10---10---10---|-10-----2----2------|
C#|-2-------|-12---14----2----2------|-2----10---10---10---10---10---10---10---|-10-----2----2------|
G#|-0-------|-10---12----0----0------|-0----8----8----8----8----8----8----8----|-8------0----0------|
D#|---------|------------------------|-----------------------------------------|--------------------|

D#|---------|---------------------------------|
A#|---------|---------------------------------|
F#|-2-------|-12---14---%----2----2------%----|
C#|-2-------|-12---14---%----2----2------%----|
G#|-0-------|-10---12--------0----0-----------|
D#|---------|---------------------------------|
Black Sabbath - I Won't Cry For You
Black Sabbath - I Won't Cry For You.gp3