Black Sabbath - Iron Man

Black Sabbath - Iron Man

Black Sabbath



Title: Iron Man
Album: 
Artist: 
Author: Black Sabbath

Track 1: Rythm Guitar
E|---------|---------|---------|---------|---------|---------------|---------|---------------|
B|---------|---------|---------|---------|---------|---------------|---------|---------------|
G|-%-------|-%-------|-%-------|-%-------|---------|---------------|---------|---------------|
D|-%-------|-%-------|-%-------|-%-------|---------|---------------|---------|---------------|
A|---------|---------|---------|---------|---------|---------------|---------|---------------|
E|---------|---------|---------|---------|-3-------|-3-------3-----|-3-------|-3-------3-----|

E|---------|---------------|---------------|--------------------|-------------------------------------|
B|---------|---------------|---------------|--------------------|-------------------------------------|
G|---------|---------------|---------------|--------------------|-8----7----8----7----8----7----------|
D|---------|---------------|-5------8------|-8-----10----10-----|-6----5----6----5----6----5----8-----|
A|---------|---------------|-3------6------|-6-----8-----8------|-------------------------------6-----|
E|-3-------|-3-------3-----|---------------|--------------------|-------------------------------------|

E|--------------------|---------------|--------------------|-------------------------------------|
B|--------------------|---------------|--------------------|-------------------------------------|
G|--------------------|---------------|--------------------|-8----7----8----7----8----7----------|
D|-8-----10----10-----|-5------8------|-8-----10----10-----|-6----5----6----5----6----5----8-----|
A|-6-----8-----8------|-3------6------|-6-----8-----8------|-------------------------------6-----|
E|--------------------|---------------|--------------------|-------------------------------------|

E|--------------------|---------------|--------------------|-------------------------------------|
B|--------------------|---------------|--------------------|-------------------------------------|
G|--------------------|---------------|--------------------|-8----7----8----7----8----7----------|
D|-8-----10----10-----|-5------8------|-8-----10----10-----|-6----5----6----5----6----5----8-----|
A|-6-----8-----8------|-3------6------|-6-----8-----8------|-------------------------------6-----|
E|--------------------|---------------|--------------------|-------------------------------------|

E|--------------------|---------------|--------------------|-------------------------------------|
B|--------------------|---------------|--------------------|-------------------------------------|
G|--------------------|---------------|--------------------|-8----7----8----7----8----7----------|
D|-8-----10----10-----|-5------8------|-8-----10----10-----|-6----5----6----5----6----5----8-----|
A|-6-----8-----8------|-3------6------|-6-----8-----8------|-------------------------------6-----|
E|--------------------|---------------|--------------------|-------------------------------------|

E|--------------------|---------------------------------|-------------------------------------|
B|--------------------|---------------------------------|-------------------------------------|
G|--------------------|---------------------------------|-------------------------------------|
D|-8-----10----10-----|----------------1----------------|-------------------------------------|
A|-6-----8-----8------|-3----3----3----------3-----2----|-1----1----1-----0----1----1----2----|
E|--------------------|---------------------------------|-------------------------------------|

E|---------------------------------|------------------------|---------|---------------|
B|---------------------------------|------------------------|---------|---------------|
G|---------------------------------|------------------%-----|-%-------|---------------|
D|----------------1----------------|------------------%-----|-%-------|-5------8------|
A|-3----3----3----------3-----2----|-1----1----1------------|---------|-3------6------|
E|---------------------------------|------------------------|---------|---------------|

E|--------------------|-------------------------------------|--------------------|---------------|
B|--------------------|-------------------------------------|--------------------|---------------|
G|--------------------|-8----7----8----7----8----7----------|--------------------|---------------|
D|-8-----10----10-----|-6----5----6----5----6----5----8-----|-8-----10----10-----|-5------8------|
A|-6-----8-----8------|-------------------------------6-----|-6-----8-----8------|-3------6------|
E|--------------------|-------------------------------------|--------------------|---------------|

E|--------------------|-------------------------------------|--------------------|---------|
B|--------------------|-------------------------------------|--------------------|---------|
G|--------------------|-8----7----8----7----8----7----------|--------------------|---------|
D|-8-----10----10-----|-6----5----6----5----6----5----8-----|-8-----10----10-----|-10------|
A|-6-----8-----8------|-------------------------------6-----|-6-----8-----8------|-8-------|
E|--------------------|-------------------------------------|--------------------|---------|

E|---------|---------|---------|-----------------------------|---------------------------------|
B|---------|---------|---------|-----------------------------|---------------------------------|
G|---------|---------|---------|-----------------------------|-----------------3----4----5-----|
D|-10------|-8-------|-8-------|-5-----5---------------3-----|-3----4----5---------------------|
A|-8-------|-6-------|-6-------|-3-----3-----3----6----------|---------------------------------|
E|---------|---------|---------|-----------------------------|---------------------------------|

E|-----------------------------|---------------------------------|---------|---------|
B|-----------------------------|---------------------------------|---------|---------|
G|-----------------------------|-----------------3----4----5-----|---------|---------|
D|-5-----5---------------3-----|-3----4----5---------------------|-10------|-10------|
A|-3-----3-----3----6----------|---------------------------------|-8-------|-8-------|
E|-----------------------------|---------------------------------|---------|---------|

E|---------|---------|-----------------------------|---------------------------------|
B|---------|---------|-----------------------------|---------------------------------|
G|---------|---------|-----------------------------|-----------------3----4----5-----|
D|-8-------|-8-------|-5-----5---------------3-----|-3----4----5---------------------|
A|-6-------|-6-------|-3-----3-----3----6----------|---------------------------------|
E|---------|---------|-----------------------------|---------------------------------|

E|-----------------------------|---------------------------------|---------------|--------------------|
B|-----------------------------|---------------------------------|---------------|--------------------|
G|-----------------------------|-----------------3----4----5-----|---------------|--------------------|
D|-5-----5---------------3-----|-3----4----5---------------------|-5------8------|-8-----10----10-----|
A|-3-----3-----3----6----------|---------------------------------|-3------6------|-6-----8-----8------|
E|-----------------------------|---------------------------------|---------------|--------------------|

E|-------------------------------------|--------------------|---------------|--------------------|
B|-------------------------------------|--------------------|---------------|--------------------|
G|-8----7----8----7----8----7----------|--------------------|---------------|--------------------|
D|-6----5----6----5----6----5----8-----|-8-----10----10-----|-5------8------|-8-----10----10-----|
A|-------------------------------6-----|-6-----8-----8------|-3------6------|-6-----8-----8------|
E|-------------------------------------|--------------------|---------------|--------------------|

E|-------------------------------------|--------------------|---------|---------|---------|
B|-------------------------------------|--------------------|---------|---------|---------|
G|-8----7----8----7----8----7----------|--------------------|---------|---------|---------|
D|-6----5----6----5----6----5----8-----|-8-----10----10-----|-10------|-10------|-8-------|
A|-------------------------------6-----|-6-----8-----8------|-8-------|-8-------|-6-------|
E|-------------------------------------|--------------------|---------|---------|---------|

E|---------|-----------------------------|---------------------------------|-----------------------------|
B|---------|-----------------------------|---------------------------------|-----------------------------|
G|---------|-----------------------------|-----------------3----4----5-----|-----------------------------|
D|-8-------|-5-----5---------------3-----|-3----4----5---------------------|-5-----5---------------3-----|
A|-6-------|-3-----3-----3----6----------|---------------------------------|-3-----3-----3----6----------|
E|---------|-----------------------------|---------------------------------|-----------------------------|

E|---------------------------------|---------|---------|---------|---------|-----------------------------|
B|---------------------------------|---------|---------|---------|---------|-----------------------------|
G|-----------------3----4----5-----|---------|---------|---------|---------|-----------------------------|
D|-3----4----5---------------------|-10------|-10------|-8-------|-8-------|-5-----5---------------3-----|
A|---------------------------------|-8-------|-8-------|-6-------|-6-------|-3-----3-----3----6----------|
E|---------------------------------|---------|---------|---------|---------|-----------------------------|

E|---------------------------------|-----------------------------|---------------------------------|
B|---------------------------------|-----------------------------|---------------------------------|
G|-----------------3----4----5-----|-----------------------------|-----------------3----4----5-----|
D|-3----4----5---------------------|-5-----5---------------3-----|-3----4----5---------------------|
A|---------------------------------|-3-----3-----3----6----------|---------------------------------|
E|---------------------------------|-----------------------------|---------------------------------|

E|-----------------------------|---------------------------------|-----------------------------|
B|-----------------------------|---------------------------------|-----------------------------|
G|-7----5----------------------|---------------------------------|-7----5----------------------|
D|------------7-----6-----5----|-5----3--------------------------|------------7-----6-----5----|
A|-----------------------------|------------3----3----5----5-----|-----------------------------|
E|-----------------------------|---------------------------------|-----------------------------|

E|---------------------------------|-----------------------------|---------------------------------|
B|---------------------------------|-----------------------------|---------------------------------|
G|---------------------------------|-7----5----------------------|---------------------------------|
D|-5----3--------------------------|------------7-----6-----5----|-5----3--------------------------|
A|------------3----3----5----5-----|-----------------------------|------------3----3----5----5-----|
E|---------------------------------|-----------------------------|---------------------------------|

E|-------------------|-------------------|-------------------|---------|-------------------|
B|-------------------|-------------------|-------------------|---------|-------------------|
G|-------------------|-------------------|-------------------|---------|-------------------|
D|-7-------5----6----|-7-------5----6----|-7-------5----6----|-5-------|-7-------5----6----|
A|-5-------3----4----|-5-------3----4----|-5-------3----4----|-3-------|-5-------3----4----|
E|-------------------|-------------------|-------------------|---------|-------------------|

E|-------------------|---------|-------------------|-------------------|---------|-----------------------------------------|
B|-------------------|---------|-------------------|-------------------|---------|-----------------------------------------|
G|-------------------|---------|-------------------|-------------------|---------|-----------------------------------------|
D|-7-------5----6----|-5-------|-7-------5----6----|-7-------5----6----|-7-------|-7----7----7----7----7----7----7----7----|
A|-5-------3----4----|-3-------|-5-------3----4----|-5-------3----4----|-5-------|-5----5----5----5----5----5----5----5----|
E|-------------------|---------|-------------------|-------------------|---------|-----------------------------------------|

E|-----------------------------------------|-----------------------------|---------------------------------|
B|-----------------------------------------|-----------------------------|---------------------------------|
G|-----------------------------------------|-7----5----------------------|---------------------------------|
D|-9----9----9----9----9----9----9----9----|------------7-----6-----5----|-5----3--------------------------|
A|-7----7----7----7----7----7----7----7----|-----------------------------|------------3----3----5----5-----|
E|-----------------------------------------|-----------------------------|---------------------------------|

E|-----------------------------|---------------------------------|-----------------------------|
B|-----------------------------|---------------------------------|-----------------------------|
G|-7----5----------------------|---------------------------------|-----------------------------|
D|------------7-----6-----5----|-5----3--------------------------|-5-----5---------------3-----|
A|-----------------------------|------------3----3----5----5-----|-3-----3-----3----6----------|
E|-----------------------------|---------------------------------|-----------------------------|

E|---------------------------------|-----------------------------|---------------------------------|
B|---------------------------------|-----------------------------|---------------------------------|
G|-----------------3----4----5-----|-----------------------------|-----------------3----4----5-----|
D|-3----4----5---------------------|-5-----5---------------3-----|-3----4----5---------------------|
A|---------------------------------|-3-----3-----3----6----------|---------------------------------|
E|---------------------------------|-----------------------------|---------------------------------|

E|---------------|--------------------|-------------------------------------|--------------------|
B|---------------|--------------------|-------------------------------------|--------------------|
G|---------------|--------------------|-8----7----8----7----8----7----------|--------------------|
D|-5------8------|-8-----10----10-----|-6----5----6----5----6----5----8-----|-8-----10----10-----|
A|-3------6------|-6-----8-----8------|-------------------------------6-----|-6-----8-----8------|
E|---------------|--------------------|-------------------------------------|--------------------|

E|---------------|--------------------|-------------------------------------|--------------------|
B|---------------|--------------------|-------------------------------------|--------------------|
G|---------------|--------------------|-8----7----8----7----8----7----------|--------------------|
D|-5------8------|-8-----10----10-----|-6----5----6----5----6----5----8-----|-8-----10----10-----|
A|-3------6------|-6-----8-----8------|-------------------------------6-----|-6-----8-----8------|
E|---------------|--------------------|-------------------------------------|--------------------|

E|---------------------------------|-------------------------------------|---------------------------------|
B|---------------------------------|-------------------------------------|---------------------------------|
G|---------------------------------|-------------------------------------|---------------------------------|
D|----------------1----------------|-------------------------------------|----------------1----------------|
A|-3----3----3----------3-----2----|-1----1----1-----0----1----1----2----|-3----3----3----------3-----2----|
E|---------------------------------|-------------------------------------|---------------------------------|

E|------------------------|---------------------------------|-------------------------------------|
B|------------------------|---------------------------------|-------------------------------------|
G|------------------%-----|---------------------------------|-------------------------------------|
D|------------------%-----|----------------1----------------|-------------------------------------|
A|-1----1----1------------|-3----3----3----------3-----2----|-1----1----1-----0----1----1----2----|
E|------------------------|---------------------------------|-------------------------------------|

E|---------------------------------|-------------------|---------|---------|---------|
B|---------------------------------|-------------------|---------|---------|---------|
G|---------------------------------|-------------------|---------|---------|---------|
D|----------------1----------------|-------------------|---------|---------|---------|
A|-3----3----3----------3-----2----|-1----1----1-------|-1-------|-1-------|-1-------|
E|---------------------------------|-------------------|---------|---------|---------|

E|---------|---------------|---------|---------------|---------------|---------|---------------|
B|---------|---------------|---------|---------------|---------------|---------|---------------|
G|---------|---------------|---------|---------------|---------------|---------|---------------|
D|---------|---------------|---------|---------------|---------------|---------|---------------|
A|-1-------|-1-------------|---------|---------------|---------------|---------|---------------|
E|---------|---------3-----|-3-------|-3-----3-------|-3-------3-----|-3-------|-3-----3-------|

E|---------------|---------|---------------|-------------------|---------------------------|
B|---------------|---------|---------------|-------------------|---------------------------|
G|---------------|---------|---------------|-------------------|---------------------------|
D|---------------|---------|---------------|-------------------|---------------------------|
A|---------------|---------|---------------|---------8----6----|-8------8----6---8---6-----|
E|-3-------3-----|-3-------|-3-----3-------|-3-----------------|---------------------------|

E|-------------------|-------------------|--------------------------------------|---------------------------|
B|-------------------|-------------------|--------------------------------------|---------------------------|
G|-------------------|-------------------|--------------------------------------|---------------------------|
D|-------------------|---------5-----6---|-6----5----6-----5--------------------|---------------------------|
A|-6-------8----6----|-8-----------------|-----------------------6----8----6----|-8------8----6---8---6-----|
E|-------------------|-------------------|--------------------------------------|---------------------------|

E|-------------------|-------------------|--------------------------------------|------------------------|
B|-------------------|-------------------|--------------------------------------|------------------------|
G|-------------------|-------------------|--------------------------------------|-------%-----------%----|
D|-------------------|---------5-----6---|-6----5----6-----5--------------------|-------%-----------%----|
A|-6-------8----6----|-8-----------------|-----------------------6----8----6----|-8------------8---------|
E|-------------------|-------------------|--------------------------------------|------------------------|
Black Sabbath - Iron Man
Black Sabbath - Iron Man.gp3