Black Sabbath - Killing Yourself to Live

Black Sabbath - Killing Yourself to Live

Black Sabbath



Title: Killing Yourself to Live
Album: Sabbath Bloody Sabbath
Artist: Black Sabbath
Author: 

Track 1: Guitar 1
D#|---------------------|---------------------------------|---------------------------------|
A#|---------------------|---------------------------------|---------------------------------|
F#|---------------------|-------------%---------%---------|----------------------------%----|
C#|---------------------|-5-----5-----%----5----%----3----|-5-----5--------------------%----|
G#|-----------1---------|-5-----5----------3---------3----|-5-----5-------------------------|
C#|-0----3---------3----|-5-----5--------------------3----|-5-----5-----0----3----5---------|

D#|---------------------------------|-------------------------------------|---------------------------------|
A#|---------------------------------|-------------------------------------|---------------------------------|
F#|-------%---------%---------------|-------------------------------------|-------------%---------%---------|
C#|-1-----%----3----%----3----5-----|-5-----5----5------------------------|-5-----5-----%----5----%----3----|
G#|-3----------3---------3----5-----|-5-----5----5--------------1---------|-5-----5----------3---------3----|
C#|------------3---------3----5-----|-5-----5----5----0----3---------3----|-5-----5--------------------3----|

D#|---------------------------------|---------------------------------|-------------------------------------|
A#|---------------------------------|---------------------------------|-------------------------------------|
F#|----------------------------%----|-------%---------%---------------|-------------------------------------|
C#|-5-----5--------------------%----|-1-----%----3----%----3----5-----|-5----5----5-------------------------|
G#|-5-----5-------------------------|-3----------3---------3----5-----|-5----5----5---------------1---------|
C#|-5-----5-----0----3----5---------|------------3---------3----5-----|-5----5----5-----0----3---------3----|

D#|---------------------------------|---------------------------------|---------------------------------|
A#|---------------------------------|---------------------------------|---------------------------------|
F#|-------------%---------%---------|----------------------------%----|-------%---------%---------------|
C#|-5-----5-----%----5----%----3----|-5-----5--------------------%----|-1-----%----3----%----3----5-----|
G#|-5-----5----------3---------3----|-5-----5-------------------------|-3----------3---------3----5-----|
C#|-5-----5--------------------3----|-5-----5-----0----3----5---------|------------3---------3----5-----|

D#|----------------------------|-----------------------------|-------------------------------------|
A#|----------------------------|-----------------------------|---------------------------3---------|
F#|----------------------------|-----------------------------|---------------------------3----%----|
C#|-5----5----5----5----5------|-----------------------------|---------------------------3----%----|
G#|-5----5----5----5----5------|-3-----6-----3----5-----3----|-6-----3---------3----5--------------|
C#|-5----5----5----5----5------|-----------------------------|------------5------------------------|

D#|---------------------------------|-------------------------|---------------------------------|
A#|---------------------------------|-------------------------|---------------------------------|
F#|-5----5----5----5----5------5----|-3------3----3-----3-----|---------------------------------|
C#|-5----5----5----5----5------5----|-3------3----1-----3-----|-7----7----7----7----7------7----|
G#|-3----3----3----3----3------3----|-1------1----1-----1-----|-7----7----7----7----7------7----|
C#|---------------------------------|-------------------------|-7----7----7----7----7------7----|

D#|--------------------|-----------------------------|-------------------------------------|
A#|--------------------|-----------------------------|---------------------------3---------|
F#|--------------------|-----------------------------|---------------------------3----%----|
C#|-6------6----5------|-----------------------------|---------------------------3----%----|
G#|-6------6----5------|-3-----6-----3----5-----3----|-6-----3---------3----5--------------|
C#|-6------6----5------|-----------------------------|------------5------------------------|

D#|---------------------------------|-------------------------|---------------------------------|
A#|---------------------------------|-------------------------|---------------------------------|
F#|-5----5----5----5----5------5----|-3------3----3-----3-----|---------------------------------|
C#|-5----5----5----5----5------5----|-3------3----1-----3-----|-7----7----7----7----7------7----|
G#|-3----3----3----3----3------3----|-1------1----1-----1-----|-7----7----7----7----7------7----|
C#|---------------------------------|-------------------------|-7----7----7----7----7------7----|

D#|--------------------|-------------------------------------|-------------------------------------|
A#|--------------------|-------------------------------------|-------------------------------------|
F#|--------------------|----------------------3--------------|----------------3--------------------|
C#|-6------6----5------|-------5----3--------------3----5----|-5----3--------------3----5----5-----|
G#|-6------6----5------|-------------------------------------|-------------------------------------|
C#|-6------6----5------|-5---------------5-------------------|-----------5-------------------------|

D#|---------------------------------|---------------------------------|---------------------------------|
A#|-----------------3-----X----X----|-5-----X----X----5----6----5-----|-----------------3-----X----X----|
F#|-----------------3-----X----X----|-5-----X----X----5----6----5-----|-----------------3-----X----X----|
C#|-5-----X----X----3-----X----X----|-5-----X----X----5----6----5-----|-5-----X----X----3-----X----X----|
G#|-5-----X----X--------------------|---------------------------------|-5-----X----X--------------------|
C#|-5-----X----X--------------------|---------------------------------|-5-----X----X--------------------|

D#|---------------------------------|-------------------------------------|-------------------------------------|
A#|-5-----X----X----5----6----5-----|-6-----8----8----8----6----3---------|-------------------------------------|
F#|-5-----X----X----5----6----5-----|--------------------------------5----|-5-----7----7----7----5----3---------|
C#|-5-----X----X----5----6----5-----|-------------------------------------|--------------------------------5----|
G#|---------------------------------|-------------------------------------|-------------------------------------|
C#|---------------------------------|-------------------------------------|-------------------------------------|

D#|-------------------------------------|-------------------------------------|-------------------------------------|
A#|-------------------------------------|-------------------------------------|-6-----8----8----8----6----3---------|
F#|----------------------3--------------|----------------3--------------------|--------------------------------5----|
C#|-------5----3--------------3----5----|-5----3--------------3----5----5-----|-------------------------------------|
G#|-------------------------------------|-------------------------------------|-------------------------------------|
C#|-5---------------5-------------------|-----------5-------------------------|-------------------------------------|

D#|-------------------------------------|-------------------------------------|-------------------------------------|
A#|-------------------------------------|-------------------------------------|-------------------------------------|
F#|-5-----7----7----7----5----3---------|----------------------3--------------|----------------3--------------------|
C#|--------------------------------5----|-------5----3--------------3----5----|-5----3--------------3----5----5-----|
G#|-------------------------------------|-------------------------------------|-------------------------------------|
C#|-------------------------------------|-5---------------5-------------------|-----------5-------------------------|

D#|---------|---------|---------|---------|---------|-------------------------------------|
A#|---------|-5-------|-8-------|-10------|---------|-12----------------------------10----|
F#|---------|-5-------|-8-------|-10------|---------|------12--------%---------%----10----|
C#|-5-------|-5-------|-8-------|-10------|-5-------|-----------12---%----10---%----------|
G#|-5-------|---------|---------|---------|-5-------|-------------------------------------|
C#|-5-------|---------|---------|---------|-5-------|-------------------------------------|

D#|------------------------|-------------------|---------|---------|---------|-------------------------------------|
A#|-10--------------8------|-----------5-------|---------|---------|---------|-------------------------------------|
F#|-10---------%----8------|------%----5-------|---------|---------|---------|------%---------5----%----3----------|
C#|-------8----%-----------|-5----%------------|-5-------|-5-------|-5-------|------%--------------%----------5----|
G#|------------------------|-------------------|-5-------|-5-------|-5-------|-------------------------------------|
C#|------------------------|-------------------|-5-------|-5-------|-5-------|-5---------5-------------------------|

D#|---------------------------------|-------------------------------------|---------------------------------|
A#|---------------------------------|-------------------------------------|---------------------------------|
F#|---------------------------------|------%---------5----%----3----------|---------------------------------|
C#|-----------3---------------3-----|------%--------------%----------5----|-----------3---------------3-----|
G#|-3----5----------3----5----------|-------------------------------------|-3----5----------3----5----------|
C#|---------------------------------|-5---------5-------------------------|---------------------------------|

D#|-------------------------------------|---------------------------------|-------------------------------------|
A#|-------------------------------------|---------------------------------|-------------------------------------|
F#|------%---------5----%----3----------|---------------------------------|------%---------5----%----3----------|
C#|------%--------------%----------5----|-----------3---------------3-----|------%--------------%----------5----|
G#|-------------------------------------|-3----5----------3----5----------|-------------------------------------|
C#|-5---------5-------------------------|---------------------------------|-5---------5-------------------------|

D#|---------------------------------|-------------------------------------|-------------------------------------------|
A#|---------------------------------|-------------------------------------|-------------------------------------------|
F#|---------------------------------|------%---------5----%----3----------|-------------------------------------------|
C#|-----------3---------------3-----|------%--------------%----------5----|-5----5---5---3---0---5----5---5---3---0---|
G#|-3----5----------3----5----------|-------------------------------------|-------------------------------------------|
C#|---------------------------------|-5---------5-------------------------|-------------------------------------------|

D#|------------------|---------|
A#|------------------|---------|
F#|------%----%------|-%-------|
C#|-5----%----%------|-%-------|
G#|------------------|---------|
C#|------------------|---------|
Black Sabbath - Killing Yourself to Live
Black Sabbath - Killing Yourself to Live.gp3