Black Sabbath - Laguna Sunrise

Black Sabbath - Laguna Sunrise

Black Sabbath



Title: Laguna Sunrise
Album: Vol 4
Artist: Black Sabbath
Author: 

Track 1: Guitar 1
E|----------------------------------|-------------------------------------------------|
B|----------------------------------|---------------------------------------------0---|
G|-%--------------------------------|-%-----%-----------------------------0---2-------|
D|-%-----2---4---5---4---2---4------|-%-----%-----2---4---5---4---2---4---------------|
A|----------------------------------|-------------------------------------------------|
E|----------------------------------|-------------------------------------------------|

E|--------------------|---------------|----------------------------------|-------------------------------------------------|
B|-1------------------|---------------|----------------------------------|---------------------------------------------0---|
G|--------2----2------|-2-----2-------|-%--------------------------------|-%-----%-----------------------------0---2-------|
D|--------------------|---------------|-%-----2---4---5---4---2---4------|-%-----%-----2---4---5---4---2---4---------------|
A|--------------------|---------------|----------------------------------|-------------------------------------------------|
E|--------------------|---------------|----------------------------------|-------------------------------------------------|

E|--------------------|---------------|------------------------------|------------------------------|
B|-1------------------|---------------|-------2---3---2---0---2------|-------2---3---2---0---2------|
G|--------2----2------|-2-----2-------|-%----------------------------|-%----------------------------|
D|--------------------|---------------|-%----------------------------|-%----------------------------|
A|--------------------|---------------|------------------------------|------------------------------|
E|--------------------|---------------|------------------------------|------------------------------|

E|----------------------------------|-------------------------------------------------|
B|----------------------------------|---------------------------------------------0---|
G|-%--------------------------------|-%-----%-----------------------------0---2-------|
D|-%-----2---4---5---4---2---4------|-%-----%-----2---4---5---4---2---4---------------|
A|----------------------------------|-------------------------------------------------|
E|----------------------------------|-------------------------------------------------|

E|--------------------|---------------|----------------------------------|-------------------------------------------------|
B|-1------------------|---------------|----------------------------------|---------------------------------------------0---|
G|--------2----2------|-2-----2-------|-%--------------------------------|-%-----%-----------------------------0---2-------|
D|--------------------|---------------|-%-----2---4---5---4---2---4------|-%-----%-----2---4---5---4---2---4---------------|
A|--------------------|---------------|----------------------------------|-------------------------------------------------|
E|--------------------|---------------|----------------------------------|-------------------------------------------------|

E|--------------------|---------------|------------------------------|------------------------------|
B|-1------------------|---------------|-------2---3---2---0---2------|-------2---3---2---0---2------|
G|--------2----2------|-2-----2-------|-%----------------------------|-%----------------------------|
D|--------------------|---------------|-%----------------------------|-%----------------------------|
A|--------------------|---------------|------------------------------|------------------------------|
E|--------------------|---------------|------------------------------|------------------------------|

E|------0----3----1----0---1---0--------0------------|--------------------------------------------|
B|-1-------------------------------3---------3---1---|-0---------0---1---0--------0---------------|
G|---------------------------------------------------|------2----------------2---------2----2-----|
D|---------------------------------------------------|--------------------------------------------|
A|---------------------------------------------------|--------------------------------------------|
E|---------------------------------------------------|--------------------------------------------|

E|-------------------------------------------------------|--------------------------------|
B|-3----1----0---1---0--------3----1----0---1---0--------|--------------------------------|
G|-----------------------2--------------------------2----|-0-----0----0----0------0---2---|
D|-------------------------------------------------------|--------------------------------|
A|-------------------------------------------------------|--------------------------------|
E|-------------------------------------------------------|--------------------------------|

E|---------|----------------------------------|-------------------------------------------------|
B|---------|----------------------------------|---------------------------------------------0---|
G|-3-------|-%--------------------------------|-%-----%-----------------------------0---2-------|
D|---------|-%-----2---4---5---4---2---4------|-%-----%-----2---4---5---4---2---4---------------|
A|---------|----------------------------------|-------------------------------------------------|
E|---------|----------------------------------|-------------------------------------------------|

E|--------------------|---------------|----------------------------------|-------------------------------------------------|
B|-1------------------|---------------|----------------------------------|---------------------------------------------0---|
G|--------2----2------|-2-----2-------|-%--------------------------------|-%-----%-----------------------------0---2-------|
D|--------------------|---------------|-%-----2---4---5---4---2---4------|-%-----%-----2---4---5---4---2---4---------------|
A|--------------------|---------------|----------------------------------|-------------------------------------------------|
E|--------------------|---------------|----------------------------------|-------------------------------------------------|

E|--------------------|---------------|------------------------------|------------------------------|
B|-1------------------|---------------|-------2---3---2---0---2------|-------2---3---2---0---2------|
G|--------2----2------|-2-----2-------|-%----------------------------|-%----------------------------|
D|--------------------|---------------|-%----------------------------|-%----------------------------|
A|--------------------|---------------|------------------------------|------------------------------|
E|--------------------|---------------|------------------------------|------------------------------|

E|----------------------------------|-------------------------------------------------|
B|----------------------------------|---------------------------------------------0---|
G|-%--------------------------------|-%-----%-----------------------------0---2-------|
D|-%-----2---4---5---4---2---4------|-%-----%-----2---4---5---4---2---4---------------|
A|----------------------------------|-------------------------------------------------|
E|----------------------------------|-------------------------------------------------|

E|--------------------|---------------|----------------------------------|-------------------------------------------------|
B|-1------------------|---------------|----------------------------------|---------------------------------------------0---|
G|--------2----2------|-2-----2-------|-%--------------------------------|-%-----%-----------------------------0---2-------|
D|--------------------|---------------|-%-----2---4---5---4---2---4------|-%-----%-----2---4---5---4---2---4---------------|
A|--------------------|---------------|----------------------------------|-------------------------------------------------|
E|--------------------|---------------|----------------------------------|-------------------------------------------------|

E|--------------------|---------------|------------------------------|------------------------------|
B|-1------------------|---------------|-------2---3---2---0---2------|-------2---3---2---0---2------|
G|--------2----2------|-2-----2-------|-%----------------------------|-%----------------------------|
D|--------------------|---------------|-%----------------------------|-%----------------------------|
A|--------------------|---------------|------------------------------|------------------------------|
E|--------------------|---------------|------------------------------|------------------------------|

E|----------------------------------|-------------------------------------------------|
B|----------------------------------|---------------------------------------------0---|
G|-%--------------------------------|-%-----%-----------------------------0---2-------|
D|-%-----2---4---5---4---2---4------|-%-----%-----2---4---5---4---2---4---------------|
A|----------------------------------|-------------------------------------------------|
E|----------------------------------|-------------------------------------------------|

E|--------------------|---------------|----------------------------------|-------------------------------------------------|
B|-1------------------|---------------|----------------------------------|---------------------------------------------0---|
G|--------2----2------|-2-----2-------|-%--------------------------------|-%-----%-----------------------------0---2-------|
D|--------------------|---------------|-%-----2---4---5---4---2---4------|-%-----%-----2---4---5---4---2---4---------------|
A|--------------------|---------------|----------------------------------|-------------------------------------------------|
E|--------------------|---------------|----------------------------------|-------------------------------------------------|

E|--------------------|---------------|------------------------------|------------------------------|
B|-1------------------|---------------|-------2---3---2---0---2------|-------2---3---2---0---2------|
G|--------2----2------|-2-----2-------|-%----------------------------|-%----------------------------|
D|--------------------|---------------|-%----------------------------|-%----------------------------|
A|--------------------|---------------|------------------------------|------------------------------|
E|--------------------|---------------|------------------------------|------------------------------|

E|------------------------------|------------------------------|------------------------------|
B|-------2---3---2---0---2------|-------2---3---2---0---2------|-------2---3---2---0---2------|
G|-%----------------------------|-%----------------------------|-%----------------------------|
D|-%----------------------------|-%----------------------------|-%----------------------------|
A|------------------------------|------------------------------|------------------------------|
E|------------------------------|------------------------------|------------------------------|
Black Sabbath - Laguna Sunrise
Black Sabbath - Laguna Sunrise.gp3