Black Sabbath - Lord of this World

Black Sabbath



Title: Lord of this World
Album: 
Artist: 
Author: Black Sabbath

Track 1: Bass
G|---------|----------------------------------------------------|----------------------------------------------------|
D|-%-------|------------------------------%---------------------|------------------------------%---------------------|
A|-%-------|-7----7--7---5----4----5---7--%---------------------|-7----7--7---5----4----5---7--%---------------------|
E|---------|---------------------------------7----6----7----7---|---------------------------------7----6----7----7---|

G|----------------------------------------------------|----------------------------------------------------|
D|------------------------------%---------------------|------------------------------%---------------------|
A|-7----7--7---5----4----5---7--%---------------------|-7----7--7---5----4----5---7--%---------------------|
E|---------------------------------7----6----7----7---|---------------------------------7----6----7----7---|

G|--------------------------------------------------------------------------------------|
D|--------------------------------------5-----------------------------------------------|
A|-7----7--5--7----7--5--7----7--5--7------7---5--7----7--5--7----7--5--7-------5---6---|
E|--------------------------------------------------------------------------7-----------|

G|--------------------------------------------------------------------------------------|
D|--------------------------------------5-----------------------------------------------|
A|-7----7--5--7----7--5--7----7--5--7------7---5--7----7--5--7----7--5--7-------5---6---|
E|--------------------------------------------------------------------------7-----------|

G|--------------------------------------------------------------------------------------|
D|--------------------------------------5-----------------------------------------------|
A|-7----7--5--7----7--5--7----7--5--7------7---5--7----7--5--7----7--5--7-------5---6---|
E|--------------------------------------------------------------------------7-----------|

G|--------------------------------------------------------------------------------------|
D|--------------------------------------5-----------------------------------------------|
A|-7----7--5--7----7--5--7----7--5--7------7---5--7----7--5--7----7--5--7-------5---6---|
E|--------------------------------------------------------------------------7-----------|

G|--------------------------------------------------------------------------------------|
D|--------------------------------------5-----------------------------------------------|
A|-7----7--5--7----7--5--7----7--5--7------7---5--7----7--5--7----7--5--7-------5---6---|
E|--------------------------------------------------------------------------7-----------|

G|--------------------------------------------------------------------------------------|
D|--------------------------------------5-----------------------------------------------|
A|-7----7--5--7----7--5--7----7--5--7------7---5--7----7--5--7----7--5--7-------5---6---|
E|--------------------------------------------------------------------------7-----------|

G|------------------------------|--------------------------------------------------------------------------------------|
D|-------------------7---5------|--------------------------------------5-----------------------------------------------|
A|---------------7----------7---|-7----7--5--7----7--5--7----7--5--7------7---5--7----7--5--7----7--5--7-------5---6---|
E|-7----6----5------------------|--------------------------------------------------------------------------7-----------|

G|--------------------------------------------------------------------------------------|
D|--------------------------------------5-----------------------------------------------|
A|-7----7--5--7----7--5--7----7--5--7------7---5--7----7--5--7----7--5--7-------5---6---|
E|--------------------------------------------------------------------------7-----------|

G|--------------------------------------------------------------------------------------|
D|--------------------------------------5-----------------------------------------------|
A|-7----7--5--7----7--5--7----7--5--7------7---5--7----7--5--7----7--5--7-------5---6---|
E|--------------------------------------------------------------------------7-----------|

G|--------------------------------------------------------------------------------------|
D|--------------------------------------5-----------------------------------------------|
A|-7----7--5--7----7--5--7----7--5--7------7---5--7----7--5--7----7--5--7-------5---6---|
E|--------------------------------------------------------------------------7-----------|

G|--------------------------------------------------------------------------------------|
D|--------------------------------------5-----------------------------------------------|
A|-7----7--5--7----7--5--7----7--5--7------7---5--7----7--5--7----7--5--7-------5---6---|
E|--------------------------------------------------------------------------7-----------|

G|--------------------------------------------------------------------------------------|
D|--------------------------------------5-----------------------------------------------|
A|-7----7--5--7----7--5--7----7--5--7------7---5--7----7--5--7----7--5--7-------5---6---|
E|--------------------------------------------------------------------------7-----------|

G|-------------------------------------------------------|--------------------------------------------------------------------------------|
D|-------------------7---5---------------%---------------|---------------%--9--11--9--9--7------------------------%--9--11--9--9--7-------|
A|---------------7----------7---5--7-----%---7---7---8---|-9--7-----7----%------------------7----9--7-----7---7---%------------------7----|
E|-7----6----5-------------------------------------------|-------9-------------------------------------9----------------------------------|

G|--------------------------------------------------------------------------------|
D|---------------%--9--11--9--9--7------------------------%--9--11--9--9--7-------|
A|-9--7-----7----%------------------7----9--7-----7---7---%------------------7----|
E|-------9-------------------------------------9----------------------------------|

G|----------9---9--9--9--9--9-----------------------------------------------------|
D|------9----------------------9--------------------------------------------------|
A|-7------------------------------7---3--3--3--3--3---3--3--5--5--5--5--5---5--5--|
E|--------------------------------------------------------------------------------|

G|---------7--9-------------9---------9---------------5---------------7------7------|
D|-----9--------------%--9---------9---------------5---------------7------7---------|
A|-7--------------7---%---------7---------3--3--3---------5--5--5---------------5---|
E|----------------------------------------------------------------------------------|

G|---------9-----------9---9-----------------------------------------------------|
D|-----9------------9---------9--------------------------------------------------|
A|-7-----------7-----------------7---3--3--3--3--3---3--3--5--5--5--5--5---5--5--|
E|-------------------------------------------------------------------------------|
Black Sabbath - Lord of this World
Black Sabbath - Lord of this World.gp3