Black Sabbath - N.I.B.

Black Sabbath



Title: N.I.B.
Album: Black Sabbath
Artist: Black Sabbath
Author: Black Sabbath

Track 1: Guitarra
E|---------|---------|---------|---------|---------|---------|---------|---------|---------|
B|---------|---------|---------|---------|---------|---------|---------|---------|---------|
G|-%-------|-%-------|-%-------|-%-------|-%-------|-%-------|-%-------|-%-------|-%-------|
D|-%-------|-%-------|-%-------|-%-------|-%-------|-%-------|-%-------|-%-------|-%-------|
A|---------|---------|---------|---------|---------|---------|---------|---------|---------|
E|---------|---------|---------|---------|---------|---------|---------|---------|---------|

E|---------|---------|---------|---------|---------|---------|---------|---------|---------|
B|---------|---------|---------|---------|---------|---------|---------|---------|---------|
G|-%-------|-%-------|-%-------|-%-------|-%-------|-%-------|-%-------|-%-------|-%-------|
D|-%-------|-%-------|-%-------|-%-------|-%-------|-%-------|-%-------|-%-------|-%-------|
A|---------|---------|---------|---------|---------|---------|---------|---------|---------|
E|---------|---------|---------|---------|---------|---------|---------|---------|---------|

E|---------|---------|---------|---------|---------|---------|---------|---------|---------|
B|---------|---------|---------|---------|---------|---------|---------|---------|---------|
G|-%-------|-%-------|-%-------|-%-------|-%-------|-%-------|-%-------|-%-------|-%-------|
D|-%-------|-%-------|-%-------|-%-------|-%-------|-%-------|-%-------|-%-------|-%-------|
A|---------|---------|---------|---------|---------|---------|---------|---------|---------|
E|---------|---------|---------|---------|---------|---------|---------|---------|---------|

E|---------|---------|---------|---------|---------|---------|---------|---------|---------|
B|---------|---------|---------|---------|---------|---------|---------|---------|---------|
G|-%-------|-%-------|-%-------|-%-------|-%-------|-%-------|-%-------|-%-------|-%-------|
D|-%-------|-%-------|-%-------|-%-------|-%-------|-%-------|-%-------|-%-------|-%-------|
A|---------|---------|---------|---------|---------|---------|---------|---------|---------|
E|---------|---------|---------|---------|---------|---------|---------|---------|---------|

E|---------|-------------------------------------|-------------------------------------|
B|---------|-------------------------------------|-------------------------------------|
G|-%-------|---------------------%---------------|---------------------%----14---12----|
D|-%-------|---------------------%---------------|---------------------%---------------|
A|---------|-14---14---12---14--------17---16----|-14---14---12---14-------------------|
E|---------|-12---12---10---12--------15---14----|-12---12---10---12-------------------|

E|-------------------------------------|-------------------------------------------------------|
B|-------------------------------------|-------------------------------------------------------|
G|---------------------%---------------|---------------------%---------------------------------|
D|---------------------%---------------|---------------------%---------------------------------|
A|-14---14---12---14--------17---16----|-14---14---12---14-------------12-14-12-14-12-14-12-14-|
E|-12---12---10---12--------15---14----|-12---12---10---12--------12---------------------------|

E|-------------------------------------|--------------------------12------12----5---|
B|-------------------------------------|--------------------------12------12----5---|
G|---------------------%---------------|---------------------%----12---%--12----5---|
D|---------------------%---------------|---------------------%---------%------------|
A|-14---14---12---14--------17---16----|-14---14---12---14--------------------------|
E|-12---12---10---12--------15---14----|-12---12---10---12--------------------------|

E|-------------------------------------|-------------------------------------------------------|
B|-------------------------------------|-------------------------------------------------------|
G|---------------------%---------------|---------------------%---------------------------------|
D|---------------------%---------------|---------------------%---------------------------------|
A|-14---14---12---14--------17---16----|-14---14---12---14-------------12-14-12-14-12-14-12-14-|
E|-12---12---10---12--------15---14----|-12---12---10---12--------12---------------------------|

E|-------------------------------------|--------------------------------------------|
B|-------------------------------------|--------------------------12------12----5---|
G|---------------------%---------------|---------------------%----12---%--12----5---|
D|---------------------%---------------|---------------------%----12---%--12----5---|
A|-14---14---12---14--------17---16----|-14---14---12---14--------------------------|
E|-12---12---10---12--------15---14----|-12---12---10---12--------------------------|

E|-------------------------------------|-----------------------------------------|------------------------------------|
B|-------------------------------------|-----------------------------------------|------------------------------------|
G|---------------------%---------------|---------------------%-------------------|------------------------------------|
D|---------------------%---------------|---------------------%-------------------|------------------------------------|
A|-14---14---12---14--------17---16----|-14---14---12---14-----------------------|-------10---12---12--10-------------|
E|-12---12---10---12--------15---14----|-12---12---10---12--------0----15---5----|-12----------------------12---12----|

E|------------------------------------|------------------------------------|-------------------------|
B|------------------------------------|------------------------------------|-12----12-----12---12----|
G|------------------------------------|------------------------------------|-14----14-----14---14----|
D|------------------------------------|------------------------------------|-------------------------|
A|-------10---12---12--10-------------|-------10---12---12--10-------------|-------------------------|
E|-12----------------------12---12----|-12----------------------12---12----|-------------------------|

E|-------------------------------------|-------------------------------------|-------------------------------------|
B|-------------------------------------|-------------------------------------|-------------------------------------|
G|---------------------%---------------|---------------------%----14---12----|---------------------%---------------|
D|---------------------%---------------|---------------------%---------------|---------------------%---------------|
A|-14---14---12---14--------17---16----|-14---14---12---14-------------------|-14---14---12---14--------17---16----|
E|-12---12---10---12--------15---14----|-12---12---10---12-------------------|-12---12---10---12--------15---14----|

E|-------------------------------------------------------|-------------------------------------|
B|-------------------------------------------------------|-------------------------------------|
G|---------------------%---------------------------------|---------------------%---------------|
D|---------------------%---------------------------------|---------------------%---------------|
A|-14---14---12---14-------------12-14-12-14-12-14-12-14-|-14---14---12---14--------17---16----|
E|-12---12---10---12--------12---------------------------|-12---12---10---12--------15---14----|

E|--------------------------12------12----5---|-------------------------------------|
B|--------------------------12------12----5---|-------------------------------------|
G|---------------------%----12---%--12----5---|---------------------%---------------|
D|---------------------%---------%------------|---------------------%---------------|
A|-14---14---12---14--------------------------|-14---14---12---14--------17---16----|
E|-12---12---10---12--------------------------|-12---12---10---12--------15---14----|

E|-------------------------------------------------------|-------------------------------------|
B|-------------------------------------------------------|-------------------------------------|
G|---------------------%---------------------------------|---------------------%---------------|
D|---------------------%---------------------------------|---------------------%---------------|
A|-14---14---12---14-------------12-14-12-14-12-14-12-14-|-14---14---12---14--------17---16----|
E|-12---12---10---12--------12---------------------------|-12---12---10---12--------15---14----|

E|--------------------------------------------|-------------------------------------|
B|--------------------------12------12----5---|-------------------------------------|
G|---------------------%----12---%--12----5---|---------------------%---------------|
D|---------------------%----12---%--12----5---|---------------------%---------------|
A|-14---14---12---14--------------------------|-14---14---12---14--------17---16----|
E|-12---12---10---12--------------------------|-12---12---10---12--------15---14----|

E|-------------------------------------|---------|---------|---------|---------|---------|
B|-------------------------------------|---------|---------|---------|---------|---------|
G|---------------------%----%-----%----|---------|---------|---------|---------|---------|
D|---------------------%----%-----%----|---------|---------|---------|---------|---------|
A|-14---14---12---14-------------------|-14------|-12------|-10------|-9-------|-14------|
E|-12---12---10---12-------------------|-12------|-10------|-8-------|-7-------|-12------|

E|---------|---------|---------|---------|---------|---------|---------|---------|-------------------------------------|
B|---------|---------|---------|---------|---------|---------|---------|---------|-------------------------------------|
G|---------|---------|---------|---------|---------|---------|---------|---------|---------------------%---------------|
D|---------|---------|---------|---------|---------|---------|---------|---------|---------------------%---------------|
A|-12------|-10------|-9-------|-10------|-9-------|-10------|-9-------|-9-------|-14---14---12---14--------17---16----|
E|-10------|-8-------|-7-------|-8-------|-7-------|-8-------|-7-------|-7-------|-12---12---10---12--------15---14----|

E|-------------------------------------|-------------------------------------|-------------------------------------------------------|
B|-------------------------------------|-------------------------------------|-------------------------------------------------------|
G|---------------------%----14---12----|---------------------%---------------|---------------------%---------------------------------|
D|---------------------%---------------|---------------------%---------------|---------------------%---------------------------------|
A|-14---14---12---14-------------------|-14---14---12---14--------17---16----|-14---14---12---14-------------12-14-12-14-12-14-12-14-|
E|-12---12---10---12-------------------|-12---12---10---12--------15---14----|-12---12---10---12--------12---------------------------|

E|-------------------------------------|--------------------------12------12----5---|
B|-------------------------------------|--------------------------12------12----5---|
G|---------------------%---------------|---------------------%----12---%--12----5---|
D|---------------------%---------------|---------------------%---------%------------|
A|-14---14---12---14--------17---16----|-14---14---12---14--------------------------|
E|-12---12---10---12--------15---14----|-12---12---10---12--------------------------|

E|-------------------------------------|-------------------------------------------------------|
B|-------------------------------------|-------------------------------------------------------|
G|---------------------%---------------|---------------------%---------------------------------|
D|---------------------%---------------|---------------------%---------------------------------|
A|-14---14---12---14--------17---16----|-14---14---12---14-------------12-14-12-14-12-14-12-14-|
E|-12---12---10---12--------15---14----|-12---12---10---12--------12---------------------------|

E|-------------------------------------|--------------------------------------------|
B|-------------------------------------|--------------------------12------12----5---|
G|---------------------%---------------|---------------------%----12---%--12----5---|
D|---------------------%---------------|---------------------%----12---%--12----5---|
A|-14---14---12---14--------17---16----|-14---14---12---14--------------------------|
E|-12---12---10---12--------15---14----|-12---12---10---12--------------------------|

E|-------------------------------------|-----------------------------------------|------------------------------------|
B|-------------------------------------|-----------------------------------------|------------------------------------|
G|---------------------%---------------|---------------------%-------------------|------------------------------------|
D|---------------------%---------------|---------------------%-------------------|------------------------------------|
A|-14---14---12---14--------17---16----|-14---14---12---14-----------------------|-------10---12---12--10-------------|
E|-12---12---10---12--------15---14----|-12---12---10---12--------0----15---5----|-12----------------------12---12----|

E|------------------------------------|------------------------------------|-------------------------|
B|------------------------------------|------------------------------------|-12----12-----12---12----|
G|------------------------------------|------------------------------------|-14----14-----14---14----|
D|------------------------------------|------------------------------------|-------------------------|
A|-------10---12---12--10-------------|-------10---12---12--10-------------|-------------------------|
E|-12----------------------12---12----|-12----------------------12---12----|-------------------------|

E|-------------------------------------------------------|---------------------------------|
B|-------------------------------------------------------|---------------------------------|
G|-------------------------------------------------------|-2----4----4-----4----7----7-----|
D|-5----4---5---4---2----5----4---5---4---2----4----5----|---------------------------------|
A|-------------------------------------------------------|---------------------------------|
E|-------------------------------------------------------|---------------------------------|

E|----------------------------------|--------------------------------|--------------------------------------------------|
B|----------------------------------|--------------------------------|----------------------8----10--8--------8----10---|
G|-7----9----9------9----%--9----%--|-9------9---7---9---7-----7-----|-9---9---9---8---9-----------------9--------------|
D|-----------------------%-------%--|--------------------------------|--------------------------------------------------|
A|----------------------------------|--------------------------------|--------------------------------------------------|
E|----------------------------------|--------------------------------|--------------------------------------------------|

E|-----------------------------------------|---------------------------------|------------------------------------|
B|-10---8----10--------10---8----10---8----|-10---8----10---8----10----10----|-10----8---10--8--------8-----------|
G|----------------9------------------------|---------------------------------|-------------------9----------%-----|
D|-----------------------------------------|---------------------------------|------------------------------%-----|
A|-----------------------------------------|---------------------------------|------------------------------------|
E|-----------------------------------------|---------------------------------|------------------------------------|

E|------------------------------------------------|---------------------------------|
B|------------------------------------------------|---------------------------------|
G|-%-----------------------------------------4----|-4-----4----7----7----9----9-----|
D|-%----5----4---5---4--------4----5----7---------|---------------------------------|
A|-----------------------7------------------------|---------------------------------|
E|------------------------------------------------|---------------------------------|

E|---------------------------------|-------12---12-----------------------|-15--12------15--12------15--12------15--12------15----|
B|---------------------------------|-----------------15---15---15---12---|---------12----------12----------12----------12--------|
G|-9----12---12----12---14---14----|-16----------------------------------|-------------------------------------------------------|
D|---------------------------------|-------------------------------------|-------------------------------------------------------|
A|---------------------------------|-------------------------------------|-------------------------------------------------------|
E|---------------------------------|-------------------------------------|-------------------------------------------------------|

E|-15---12--15--12-------12--------------------12----------|-------12--------------12--------------------------|
B|------------------15--------15--12-------12------15------|-15--------15--12----------12----------------------|
G|------------------------------------14----------------%--|-------------------15----------14---%--14----14-%--|
D|------------------------------------------------------%--|------------------------------------%-----------%--|
A|---------------------------------------------------------|---------------------------------------------------|
E|---------------------------------------------------------|---------------------------------------------------|

E|------------------------------------------------------|-------------------------------------|
B|------------------------------------------------------|-------------------------------------|
G|---------12--14--12-------12---14--15--14--------%----|---------------------%---------------|
D|-12--14--------------14--------------------17----%----|---------------------%---------------|
A|------------------------------------------------------|-14---14---12---14--------17---16----|
E|------------------------------------------------------|-12---12---10---12--------15---14----|

E|-------------------------------------|-------------------------------------|-------------------------------------------------------|
B|-------------------------------------|-------------------------------------|-------------------------------------------------------|
G|---------------------%----14---12----|---------------------%---------------|---------------------%---------------------------------|
D|---------------------%---------------|---------------------%---------------|---------------------%---------------------------------|
A|-14---14---12---14-------------------|-14---14---12---14--------17---16----|-14---14---12---14-------------12-14-12-14-12-14-12-14-|
E|-12---12---10---12-------------------|-12---12---10---12--------15---14----|-12---12---10---12--------12---------------------------|

E|-------------------------------------|--------------------------12------12----5---|
B|-------------------------------------|--------------------------12------12----5---|
G|---------------------%---------------|---------------------%----12---%--12----5---|
D|---------------------%---------------|---------------------%---------%------------|
A|-14---14---12---14--------17---16----|-14---14---12---14--------------------------|
E|-12---12---10---12--------15---14----|-12---12---10---12--------------------------|

E|-------------------------------------|--------------------------------------------|
B|-------------------------------------|--------------------------12------12----5---|
G|---------------------%---------------|---------------------%----12---%--12----5---|
D|---------------------%---------------|---------------------%----12---%--12----5---|
A|-14---14---12---14--------17---16----|-14---14---12---14--------------------------|
E|-12---12---10---12--------15---14----|-12---12---10---12--------------------------|

E|-------------------------------------|--------------------------------------------|
B|-------------------------------------|--------------------------12------12----5---|
G|---------------------%---------------|---------------------%----12---%--12----5---|
D|---------------------%---------------|---------------------%----12---%--12----5---|
A|-14---14---12---14--------17---16----|-14---14---12---14--------------------------|
E|-12---12---10---12--------15---14----|-12---12---10---12--------------------------|

E|-------------------------------------|----------------------------|---------|---------|
B|-------------------------------------|----------------------------|---------|---------|
G|---------------------%---------------|---------------------%------|---------|---------|
D|---------------------%---------------|---------------------%------|---------|---------|
A|-14---14---12---14--------17---16----|-14---14---12---14----------|-14------|-12------|
E|-12---12---10---12--------15---14----|-12---12---10---12----------|-12------|-10------|

E|---------|---------|---------|---------|---------|---------|---------|---------|---------|
B|---------|---------|---------|---------|---------|---------|---------|---------|---------|
G|---------|---------|---------|---------|---------|---------|---------|---------|---------|
D|---------|---------|---------|---------|---------|---------|---------|---------|---------|
A|-10------|-9-------|-14------|-12------|-10------|-9-------|-10------|-9-------|-10------|
E|-8-------|-7-------|-12------|-10------|-8-------|-7-------|-8-------|-7-------|-8-------|

E|---------|---------|-------------------------------------|-------------------------------------|
B|---------|---------|-------------------------------------|-------------------------------------|
G|---------|---------|---------------------%---------------|---------------------%----14---12----|
D|---------|---------|---------------------%---------------|---------------------%---------------|
A|-9-------|-9-------|-14---14---12---14--------17---16----|-14---14---12---14-------------------|
E|-7-------|-7-------|-12---12---10---12--------15---14----|-12---12---10---12-------------------|

E|-------------------------------------|-------------------------------------------------------|
B|-------------------------------------|-------------------------------------------------------|
G|---------------------%---------------|---------------------%---------------------------------|
D|---------------------%---------------|---------------------%---------------------------------|
A|-14---14---12---14--------17---16----|-14---14---12---14-------------12-14-12-14-12-14-12-14-|
E|-12---12---10---12--------15---14----|-12---12---10---12--------12---------------------------|

E|-------------------------------------|--------------------------12------12----5---|
B|-------------------------------------|--------------------------12------12----5---|
G|---------------------%---------------|---------------------%----12---%--12----5---|
D|---------------------%---------------|---------------------%---------%------------|
A|-14---14---12---14--------17---16----|-14---14---12---14--------------------------|
E|-12---12---10---12--------15---14----|-12---12---10---12--------------------------|

E|-------------------------------------|-------------------------------------------------------|
B|-------------------------------------|-------------------------------------------------------|
G|---------------------%---------------|---------------------%---------------------------------|
D|---------------------%---------------|---------------------%---------------------------------|
A|-14---14---12---14--------17---16----|-14---14---12---14-------------12-14-12-14-12-14-12-14-|
E|-12---12---10---12--------15---14----|-12---12---10---12--------12---------------------------|

E|-------------------------------------|--------------------------------------------|
B|-------------------------------------|--------------------------12------12----5---|
G|---------------------%---------------|---------------------%----12---%--12----5---|
D|---------------------%---------------|---------------------%----12---%--12----5---|
A|-14---14---12---14--------17---16----|-14---14---12---14--------------------------|
E|-12---12---10---12--------15---14----|-12---12---10---12--------------------------|

E|-------------------------------------|-----------------------------------------|------------------------------------|
B|-------------------------------------|-----------------------------------------|------------------------------------|
G|---------------------%---------------|---------------------%-------------------|------------------------------------|
D|---------------------%---------------|---------------------%-------------------|------------------------------------|
A|-14---14---12---14--------17---16----|-14---14---12---14-----------------------|-------10---12---12--10-------------|
E|-12---12---10---12--------15---14----|-12---12---10---12--------0----15---5----|-12----------------------12---12----|

E|------------------------------------|------------------------------------|-------------------------|
B|------------------------------------|------------------------------------|-12----12-----12---12----|
G|------------------------------------|------------------------------------|-14----14-----14---14----|
D|------------------------------------|------------------------------------|-------------------------|
A|-------10---12---12--10-------------|-------10---12---12--10-------------|-------------------------|
E|-12----------------------12---12----|-12----------------------12---12----|-------------------------|

E|-------------------------------------------------------|---------------------------------|
B|-------------------------------------------------------|---------------------------------|
G|-------------------------------------------------------|-2----4----4-----4----7----7-----|
D|-5----4---5---4--------5----4---5---4--------4----5----|---------------------------------|
A|------------------7---------------------7--------------|---------------------------------|
E|-------------------------------------------------------|---------------------------------|

E|----------------------------------|--------------------------------|-------------------------------------------------10----|
B|----------------------------------|--------------------------------|-8---8---8---8---8---8---8---8---8---8---8---8---------|
G|-7----9----9------9----%--9----%--|-9------9---7---9---7-----7-----|-9---9---9---8---9---9---8---9---9---8---9---9---------|
D|-----------------------%-------%--|--------------------------------|-------------------------------------------------------|
A|----------------------------------|--------------------------------|-------------------------------------------------------|
E|----------------------------------|--------------------------------|-------------------------------------------------------|

E|-7-------10------------------------------------|---------------------------------|
B|-----------------10---8----10--------8----10---|-10---8----10---8----10----10----|
G|------%-------%-----------------9--------------|---------------------------------|
D|------%-------%--------------------------------|---------------------------------|
A|-----------------------------------------------|---------------------------------|
E|-----------------------------------------------|---------------------------------|

E|-------------------------12-----------12---|-----------------15----15---12--15--12--|
B|-10----10--------11--12-------11--12-------|-15----15---12--------------------------|
G|-------------%-----------------------------|----------------------------------------|
D|-------------%-----------------------------|----------------------------------------|
A|-------------------------------------------|----------------------------------------|
E|-------------------------------------------|----------------------------------------|

E|-----12---------------12-----------12----------------|----------------------------------------------------------------------12---|
B|-15------15--12-----------15--15-------15--------17--|-15--17--15----------------------------------------------------------------|
G|-----------------14------------------------15--------|-------------15--16--15--14--15--14--12--14--12--12------12--14--14--------|
D|-----------------------------------------------------|-----------------------------------------------------14--------------------|
A|-----------------------------------------------------|---------------------------------------------------------------------------|
E|-----------------------------------------------------|---------------------------------------------------------------------------|

E|----------------------------------------|-15--12------15--12------15--12------15--12------15--12------15--|
B|-15----15---12---------------------12---|---------12----------12----------12----------12----------12------|
G|-----------------15--14--12---14--------|-----------------------------------------------------------------|
D|----------------------------------------|-----------------------------------------------------------------|
A|----------------------------------------|-----------------------------------------------------------------|
E|----------------------------------------|-----------------------------------------------------------------|

E|-12------15--12------15--12------15--12------15--12------15--12--|-----15--12------15--12------15--12------15--12------15--12------|
B|-----12----------12----------12----------12----------12----------|-12----------12----------12----------12----------12----------12--|
G|-----------------------------------------------------------------|-----------------------------------------------------------------|
D|-----------------------------------------------------------------|-----------------------------------------------------------------|
A|-----------------------------------------------------------------|-----------------------------------------------------------------|
E|-----------------------------------------------------------------|-----------------------------------------------------------------|

E|-15-------------------------------------------------------17------15-12----12-----|
B|---------12-15-12-----12-------------12-15---12-15-12-------------------15--------|
G|------%-----------14------12-14-12--------------------14-------%---------------%--|
D|------%--------------------------------------------------------%---------------%--|
A|----------------------------------------------------------------------------------|
E|----------------------------------------------------------------------------------|

E|---------------------------|---------------------------------------|-------------------|
B|-12-5--12-----12-----------|-----12--------------------------------|-------------------|
G|----------14------12-14-12-|-15-------15---%--15----15--14---12----|-12---%------------|
D|---------------------------|---------------%-----------------------|-14---%----14------|
A|---------------------------|---------------------------------------|-----------14------|
E|---------------------------|---------------------------------------|-----------12------|

E|-----------------------------------------------------------------|-------------------------------------|
B|-----------------------------------------------------------------|-------------------------------------|
G|---------%---12--%---14--%---14---12--14--12---12--%-------%-----|-----%-------%-------%---------------|
D|-12--14--%-------%-------%-------------------------%---14--%--12-|-14--%---12--%-------%---------------|
A|-----------------------------------------------------------------|-----------------14------12---11-----|
E|-----------------------------------------------------------------|-------------------------------------|

E|--------------------|
B|--------------------|
G|-------------%------|
D|-------14----%------|
A|-11----14-----------|
E|-------12-----------|
Black Sabbath - N.I.B.
Black Sabbath - N.I.B..gp3