Black Sabbath - N.I.B (Intro Bass Solo)

Black Sabbath - N.I.B (Intro Bass Solo)

Black Sabbath



Title: Black Sabbath - N.I.B. (Bass Solo)
Album: 
Artist: 
Author: 

Track 1: Geezer Butler
G|-----------------------------------------|-----------------------------------------|
D|---------------------5---------5----7----|-7----7----5-------------------5---------|
A|-7----7----5--------------7--------------|----------------7----5--------------5----|
E|----------------7------------------------|--------------------------7--------------|

G|----------------------9----9----7----|-9----9----7-------------------------|-------------------------------------|
D|------7-----7----9-------------------|----------------9----7----9----------|-----------5-----7----7----5---------|
A|-7-----------------------------------|-------------------------------10----|-5----7-------------------------7----|
E|-------------------------------------|-------------------------------------|-------------------------------------|

G|-----------------------------------------|-----------------------------------------|
D|-----------------------------------------|------5--------------5----7----7----5----|
A|-5----------------------------------7----|-7---------7----7------------------------|
E|------7----5----3----0----5----7---------|-----------------------------------------|

G|-----------------7----9----9----9----|-7---------------------------------------|-----------------------------------------|
D|-------7----9------------------------|------9----7----9---------5--------------|--------------------------5----7----7----|
A|-7-----------------------------------|---------------------10--------7---------|----------------5----7-------------------|
E|-------------------------------------|------------------------------------7----|-7----5----7-----------------------------|

G|-----------------------------------------|-------------------------------------|-----------------------------|
D|-5---------5-----------------------------|---------------------------5---------|-----------------------------|
A|------7---------7----5-------------------|-----------------5----7---------7----|-7------7----5----7-----7----|
E|--------------------------7----5----3----|-0-----5----7------------------------|-----------------------------|

G|-----------------------------------------|-------------------------------------|-----------------------------------------|
D|-5----7----7----7----5--------------5----|-5----7----7----7----5---------------|--------------------------7----7----7----|
A|--------------------------5----7---------|--------------------------7-----7----|-5--------------5----7-------------------|
E|-----------------------------------------|-------------------------------------|------5----7-----------------------------|

G|-----------------------9----9----|-9----7----------------------------------|---------------------------------|
D|-5-----------7----9--------------|-----------7----9----5-------------------|-5-------------------------------|
A|------7--------------------------|--------------------------7----5---------|--------7----5---------7----5----|
E|---------------------------------|------------------------------------7----|------------------7--------------|

G|---------------------------------|-----------------------------------------|-----------------------------|
D|----------------5----------------|------------------------------------5----|-5---------------------------|
A|------5----7---------7------5----|------7---------5---------7--------------|-------7------7----5---------|
E|-7-------------------------------|-7---------7---------7---------7---------|------------------------7----|

G|-----------------------------------------|----------------------------|---------|
D|-----------7----7----5-------------------|----------------------------|---------|
A|-5----7-------------------7----7----7----|-7----5---------5----7------|-7-------|
E|-----------------------------------------|-----------7----------------|---------|
Black Sabbath - N.I.B (Intro Bass Solo)
Black Sabbath - N.I.B (Intro Bass Solo).gp3