Black Sabbath - NIB

Black Sabbath



Title: NIB
Album: 
Artist: 
Author: Black Sabbath

Track 1: Tony Iommi (Disto Guitar)
E|---------|---------|---------|---------|---------|---------|---------|---------|---------|
B|---------|---------|---------|---------|---------|---------|---------|---------|---------|
G|-%-------|-%-------|-%-------|-%-------|-%-------|-%-------|-%-------|-%-------|-%-------|
D|-%-------|-%-------|-%-------|-%-------|-%-------|-%-------|-%-------|-%-------|-%-------|
A|---------|---------|---------|---------|---------|---------|---------|---------|---------|
E|---------|---------|---------|---------|---------|---------|---------|---------|---------|

E|---------|---------|---------|---------|---------|---------|---------|---------|---------|
B|---------|---------|---------|---------|---------|---------|---------|---------|---------|
G|-%-------|-%-------|-%-------|-%-------|-%-------|-%-------|-%-------|-%-------|-%-------|
D|-%-------|-%-------|-%-------|-%-------|-%-------|-%-------|-%-------|-%-------|-%-------|
A|---------|---------|---------|---------|---------|---------|---------|---------|---------|
E|---------|---------|---------|---------|---------|---------|---------|---------|---------|

E|---------|---------|---------|---------|---------|---------|---------|---------|---------|
B|---------|---------|---------|---------|---------|---------|---------|---------|---------|
G|-%-------|-%-------|-%-------|-%-------|-%-------|-%-------|-%-------|-%-------|-%-------|
D|-%-------|-%-------|-%-------|-%-------|-%-------|-%-------|-%-------|-%-------|-%-------|
A|---------|---------|---------|---------|---------|---------|---------|---------|---------|
E|---------|---------|---------|---------|---------|---------|---------|---------|---------|

E|---------|---------|---------|---------|---------|---------|---------|---------|---------|
B|---------|---------|---------|---------|---------|---------|---------|---------|---------|
G|-%-------|-%-------|-%-------|-%-------|-%-------|-%-------|-%-------|-%-------|-%-------|
D|-%-------|-%-------|-%-------|-%-------|-%-------|-%-------|-%-------|-%-------|-%-------|
A|---------|---------|---------|---------|---------|---------|---------|---------|---------|
E|---------|---------|---------|---------|---------|---------|---------|---------|---------|

E|-----------------------------------------|--------------------------11---11----|-----------------------------------------|
B|-----------------------------------------|--------------------------14---14----|-----------------------------------------|
G|-8----8----6----8----%----11---10---%----|-8----8----6----8----%---------------|-8----8----6----8----%----11---10---%----|
D|-8----8----6----8----%----11---10---%----|-8----8----6----8----%---------------|-8----8----6----8----%----11---10---%----|
A|-6----6----4----6---------9----8---------|-6----6----4----6--------------------|-6----6----4----6---------9----8---------|
E|-----------------------------------------|-------------------------------------|-----------------------------------------|

E|-----------------------------------------------|-----------------------------------------|
B|-----------------------------------------------|-----------------------------------------|
G|-8----8----6----8----%-------------3---3---3---|-8----8----6----8----%----11---10---%----|
D|-8----8----6----8----%---------6---6-------6---|-8----8----6----8----%----11---10---%----|
A|-6----6----4----6---------6--------------------|-6----6----4----6---------9----8---------|
E|-----------------------------------------------|-----------------------------------------|

E|--------------------------11---11----|-----------------------------------------|-----------------------------------------------|
B|--------------------------11---11----|-----------------------------------------|-----------------------------------------------|
G|-8----8----6----8----%----11---11----|-8----8----6----8----%----11---10---%----|-8----8----6----8----%-------------3---3---3---|
D|-8----8----6----8----%---------------|-8----8----6----8----%----11---10---%----|-8----8----6----8----%---------6---6-------6---|
A|-6----6----4----6--------------------|-6----6----4----6---------9----8---------|-6----6----4----6---------6--------------------|
E|-------------------------------------|-----------------------------------------|-----------------------------------------------|

E|-----------------------------------------|--------------------------11---11----|-----------------------------------------|
B|-----------------------------------------|--------------------------11---11----|-----------------------------------------|
G|-8----8----6----8----%----11---10---%----|-8----8----6----8----%----11---11----|-8----8----6----8----%----11---10---%----|
D|-8----8----6----8----%----11---10---%----|-8----8----6----8----%---------------|-8----8----6----8----%----11---10---%----|
A|-6----6----4----6---------9----8---------|-6----6----4----6--------------------|-6----6----4----6---------9----8---------|
E|-----------------------------------------|-------------------------------------|-----------------------------------------|

E|-----------------------------------------------|------------------------------------|
B|-----------------------------------------------|------------------------------------|
G|-8----8----6----8----%-------------3---3---3---|------------------------------------|
D|-8----8----6----8----%---------6---6-------6---|-------4----6----6---4--------------|
A|-6----6----4----6---------6--------------------|-6-----------------------6----6-----|
E|-----------------------------------------------|------------------------------------|

E|------------------------------------|------------------------------------|-6-----6-----6-----6-----|
B|------------------------------------|------------------------------------|-------------------------|
G|------------------------------------|------------------------------------|-------------------------|
D|-------4----6----6---4--------------|-------4----6----6---4--------------|-------------------------|
A|-6-----------------------6----6-----|-6-----------------------6----6-----|-------------------------|
E|------------------------------------|------------------------------------|-------------------------|

E|-----------------------------------------|--------------------------6----------|-----------------------------------------|
B|-----------------------------------------|-------------------------------7-----|-----------------------------------------|
G|-8----8----6----8----%----11---10---%----|-8----8----6----8----%---------------|-8----8----6----8----%----11---10---%----|
D|-8----8----6----8----%----11---10---%----|-8----8----6----8----%---------------|-8----8----6----8----%----11---10---%----|
A|-6----6----4----6---------9----8---------|-6----6----4----6--------------------|-6----6----4----6---------9----8---------|
E|-----------------------------------------|-------------------------------------|-----------------------------------------|

E|-----------------------------------------------|-----------------------------------------|
B|-----------------------------------------------|-----------------------------------------|
G|-8----8----6----8----%-------------3---3---3---|-8----8----6----8----%----11---10---%----|
D|-8----8----6----8----%---------6---6-------6---|-8----8----6----8----%----11---10---%----|
A|-6----6----4----6---------6--------------------|-6----6----4----6---------9----8---------|
E|-----------------------------------------------|-----------------------------------------|

E|--------------------------11---11----|-----------------------------------------|-----------------------------------------------|
B|--------------------------11---11----|-----------------------------------------|-----------------------------------------------|
G|-8----8----6----8----%----11---11----|---------------------%--------------%----|-8----8----6----8----%-------------3---3---3---|
D|-8----8----6----8----%---------------|---------------------%----11---10---%----|-8----8----6----8----%---------6---6-------6---|
A|-6----6----4----6--------------------|-13---13---11---13--------9----8---------|-6----6----4----6---------6--------------------|
E|-------------------------------------|-11---11---9----11-----------------------|-----------------------------------------------|

E|-----------------------------------------|--------------------------11---11----|-----------------------------------------|
B|-----------------------------------------|--------------------------11---11----|-----------------------------------------|
G|-8----8----6----8----%----11---10---%----|-8----8----6----8----%----11---11----|-8----8----6----8----%----11---10---%----|
D|-8----8----6----8----%----11---10---%----|-8----8----6----8----%---------------|-8----8----6----8----%----11---10---%----|
A|-6----6----4----6---------9----8---------|-6----6----4----6--------------------|-6----6----4----6---------9----8---------|
E|-----------------------------------------|-------------------------------------|-----------------------------------------|

E|-----------------------------------------------|---------|---------|---------|---------|
B|-----------------------------------------------|---------|---------|---------|---------|
G|-8----8----6----8----%-------------3---3---3---|-8-------|-6-------|-4-------|-3-------|
D|-8----8----6----8----%---------6---6-------6---|-8-------|-6-------|-4-------|-3-------|
A|-6----6----4----6---------6--------------------|-6-------|-4-------|-2-------|-1-------|
E|-----------------------------------------------|---------|---------|---------|---------|

E|---------|---------|---------|---------|---------|---------|---------|---------|---------|
B|---------|---------|---------|---------|---------|---------|---------|---------|---------|
G|-8-------|-6-------|-4-------|-3-------|-4-------|-3-------|-4-------|-3-------|-3-------|
D|-8-------|-6-------|-4-------|-3-------|-4-------|-3-------|-4-------|-3-------|-3-------|
A|-6-------|-4-------|-2-------|-1-------|-2-------|-1-------|-2-------|-1-------|-1-------|
E|---------|---------|---------|---------|---------|---------|---------|---------|---------|

E|-----------------------------------------|--------------------------6----------|-----------------------------------------|
B|-----------------------------------------|-------------------------------7-----|-----------------------------------------|
G|-8----8----6----8----%----11---10---%----|-8----8----6----8----%---------------|-8----8----6----8----%----11---10---%----|
D|-8----8----6----8----%----11---10---%----|-8----8----6----8----%---------------|-8----8----6----8----%----11---10---%----|
A|-6----6----4----6---------9----8---------|-6----6----4----6--------------------|-6----6----4----6---------9----8---------|
E|-----------------------------------------|-------------------------------------|-----------------------------------------|

E|-----------------------------------------------|-----------------------------------------|
B|-----------------------------------------------|-----------------------------------------|
G|-8----8----6----8----%-------------3---3---3---|-8----8----6----8----%----11---10---%----|
D|-8----8----6----8----%---------6---6-------6---|-8----8----6----8----%----11---10---%----|
A|-6----6----4----6---------6--------------------|-6----6----4----6---------9----8---------|
E|-----------------------------------------------|-----------------------------------------|

E|--------------------------11---11----|-----------------------------------------|-----------------------------------------------|
B|--------------------------11---11----|-----------------------------------------|-----------------------------------------------|
G|-8----8----6----8----%----11---11----|-8----8----6----8----%----11---10---%----|-8----8----6----8----%-------------3---3---3---|
D|-8----8----6----8----%---------------|-8----8----6----8----%----11---10---%----|-8----8----6----8----%---------6---6-------6---|
A|-6----6----4----6--------------------|-6----6----4----6---------9----8---------|-6----6----4----6---------6--------------------|
E|-------------------------------------|-----------------------------------------|-----------------------------------------------|

E|-----------------------------------------|--------------------------11---11----|-----------------------------------------|
B|-----------------------------------------|--------------------------11---11----|-----------------------------------------|
G|-8----8----6----8----%----11---10---%----|-8----8----6----8----%----11---11----|-8----8----6----8----%----11---10---%----|
D|-8----8----6----8----%----11---10---%----|-8----8----6----8----%---------------|-8----8----6----8----%----11---10---%----|
A|-6----6----4----6---------9----8---------|-6----6----4----6--------------------|-6----6----4----6---------9----8---------|
E|-----------------------------------------|-------------------------------------|-----------------------------------------|

E|-----------------------------------------------|------------------------------------|
B|-----------------------------------------------|------------------------------------|
G|-8----8----6----8----%-------------3---3---3---|------------------------------------|
D|-8----8----6----8----%---------6---6-------6---|-------4----6----6---4--------------|
A|-6----6----4----6---------6--------------------|-6-----------------------6----6-----|
E|-----------------------------------------------|------------------------------------|

E|------------------------------------|------------------------------------|-6-----6-----6-----6-----|
B|------------------------------------|------------------------------------|-------------------------|
G|------------------------------------|------------------------------------|-------------------------|
D|-------4----6----6---4--------------|-------4----6----6---4--------------|-------------------------|
A|-6-----------------------6----6-----|-6-----------------------6----6-----|-------------------------|
E|------------------------------------|------------------------------------|-------------------------|

E|-----------------------------------------------|-----------------------------|---------------------------------|
B|-----------------------------------------------|------------------2----2-----|-2----4----4------6----6----6----|
G|-----------------------------------------------|-1----3----3-----------------|---------------------------------|
D|-4----3---4--------4----3---4--------3----4----|-----------------------------|---------------------------------|
A|----------8---6-------------8---6--------------|-----------------------------|---------------------------------|
E|-----------------------------------------------|-----------------------------|---------------------------------|

E|-----------------------|---------------------------4---2--------2----4----|-6--------4--------6--------4---2----6----2---4---|
B|-6------4---2---2------|-4---4---4---3---4----3------------4--------------|------7-------4---------7-------------------------|
G|-----------------------|--------------------------------------------------|--------------------------------------------------|
D|-----------------------|--------------------------------------------------|--------------------------------------------------|
A|-----------------------|--------------------------------------------------|--------------------------------------------------|
E|-----------------------|--------------------------------------------------|--------------------------------------------------|

E|-2-----6-----6-----4----2-------|-4---2---4-------2-------|--------------------------------------------|
B|--------------------------------|-------------------------|--------------------------------------------|
G|----------------------------%---|-------------%-----------|-----------------------------1----3----3----|
D|----------------------------%---|-------------%-----------|-4----3---4--------3----4-------------------|
A|--------------------------------|-------------------------|----------8---6-----------------------------|
E|--------------------------------|-------------------------|--------------------------------------------|

E|-----------------------------|-------2----2------2---4---6----|-6-----6----11---11---11---9---------|
B|-------2----2------4----4----|-4------------------------------|--------------------------------11---|
G|-3---------------------------|--------------------------------|-------------------------------------|
D|-----------------------------|--------------------------------|-------------------------------------|
A|-----------------------------|--------------------------------|-------------------------------------|
E|-----------------------------|--------------------------------|-------------------------------------|

E|-14--11------14--11------14--11------14--11------16----|-14-------14-----------------------------------------|
B|---------11----------11----------11----------11--------|------16------16---14---16--14-----------16--14------|
G|-------------------------------------------------------|----------------------------15--15---15----------%---|
D|-------------------------------------------------------|-------------------------------------------------%---|
A|-------------------------------------------------------|-----------------------------------------------------|
E|-------------------------------------------------------|-----------------------------------------------------|

E|---------------------------11-------------|--------------------------6----------|
B|-16----16--14----------14------11---11----|-9--------9-----------7-------7------|
G|---------------15--14---------------------|------11------11--8------------------|
D|------------------------------------------|-------------------------------------|
A|------------------------------------------|-------------------------------------|
E|------------------------------------------|-------------------------------------|

E|-----------------------------------------|--------------------------6----------|-----------------------------------------|
B|-----------------------------------------|-------------------------------7-----|-----------------------------------------|
G|-8----8----6----8----%----11---10---%----|-8----8----6----8----%---------------|-8----8----6----8----%----11---10---%----|
D|-8----8----6----8----%----11---10---%----|-8----8----6----8----%---------------|-8----8----6----8----%----11---10---%----|
A|-6----6----4----6---------9----8---------|-6----6----4----6--------------------|-6----6----4----6---------9----8---------|
E|-----------------------------------------|-------------------------------------|-----------------------------------------|

E|-----------------------------------------------|-----------------------------------------|
B|-----------------------------------------------|-----------------------------------------|
G|-8----8----6----8----%-------------3---3---3---|-8----8----6----8----%----11---10---%----|
D|-8----8----6----8----%---------6---6-------6---|-8----8----6----8----%----11---10---%----|
A|-6----6----4----6---------6--------------------|-6----6----4----6---------9----8---------|
E|-----------------------------------------------|-----------------------------------------|

E|--------------------------11------11----|-----------------------------------------|
B|--------------------------11------11----|-----------------------------------------|
G|-3----3----1----3----%----11--%---11----|-8----8----6----8----%----11---10---%----|
D|-1----1---------1----%--------%---------|-8----8----6----8----%----11---10---%----|
A|-----------4----------------------------|-6----6----4----6---------9----8---------|
E|----------------------------------------|-----------------------------------------|

E|-----------------------------------------------|-----------------------------------------|
B|-----------------------------------------------|-----------------------------------------|
G|-8----8----6----8----%-------------3---3---3---|-8----8----6----8----%----11---10---%----|
D|-8----8----6----8----%---------6---6-------6---|-8----8----6----8----%----11---10---%----|
A|-6----6----4----6---------6--------------------|-6----6----4----6---------9----8---------|
E|-----------------------------------------------|-----------------------------------------|

E|--------------------------11---11----|-----------------------------------------|-----------------------------------------------|
B|--------------------------11---11----|-----------------------------------------|-----------------------------------------------|
G|-8----8----6----8----%----11---11----|-8----8----6----8----%----11---10---%----|-8----8----6----8----%-------------3---3---3---|
D|-8----8----6----8----%---------------|-8----8----6----8----%----11---10---%----|-8----8----6----8----%---------6---6-------6---|
A|-6----6----4----6--------------------|-6----6----4----6---------9----8---------|-6----6----4----6---------6--------------------|
E|-------------------------------------|-----------------------------------------|-----------------------------------------------|

E|---------|---------|---------|---------|---------|---------|---------|---------|---------|
B|---------|---------|---------|---------|---------|---------|---------|---------|---------|
G|-8-------|-6-------|-4-------|-3-------|-8-------|-6-------|-4-------|-3-------|-4-------|
D|-8-------|-6-------|-4-------|-3-------|-8-------|-6-------|-4-------|-3-------|-4-------|
A|-6-------|-4-------|-2-------|-1-------|-6-------|-4-------|-2-------|-1-------|-2-------|
E|---------|---------|---------|---------|---------|---------|---------|---------|---------|

E|---------|---------|---------|---------|-----------------------------------------|
B|---------|---------|---------|---------|-----------------------------------------|
G|-3-------|-4-------|-3-------|-3-------|-8----8----6----8----%----11---10---%----|
D|-3-------|-4-------|-3-------|-3-------|-8----8----6----8----%----11---10---%----|
A|-1-------|-2-------|-1-------|-1-------|-6----6----4----6---------9----8---------|
E|---------|---------|---------|---------|-----------------------------------------|

E|--------------------------6----------|-----------------------------------------|-----------------------------------------------|
B|-------------------------------7-----|-----------------------------------------|-----------------------------------------------|
G|-8----8----6----8----%---------------|-8----8----6----8----%----11---10---%----|-8----8----6----8----%-------------3---3---3---|
D|-8----8----6----8----%---------------|-8----8----6----8----%----11---10---%----|-8----8----6----8----%---------6---6-------6---|
A|-6----6----4----6--------------------|-6----6----4----6---------9----8---------|-6----6----4----6---------6--------------------|
E|-------------------------------------|-----------------------------------------|-----------------------------------------------|

E|-----------------------------------------|--------------------------11---11----|-----------------------------------------|
B|-----------------------------------------|--------------------------11---11----|-----------------------------------------|
G|-8----8----6----8----%----11---10---%----|-8----8----6----8----%----11---11----|---------------------%--------------%----|
D|-8----8----6----8----%----11---10---%----|-8----8----6----8----%---------------|---------------------%----11---10---%----|
A|-6----6----4----6---------9----8---------|-6----6----4----6--------------------|-13---13---11---13--------9----8---------|
E|-----------------------------------------|-------------------------------------|-11---11---9----11-----------------------|

E|-----------------------------------------------|-----------------------------------------|
B|-----------------------------------------------|-----------------------------------------|
G|-8----8----6----8----%-------------3---3---3---|-8----8----6----8----%----11---10---%----|
D|-8----8----6----8----%---------6---6-------6---|-8----8----6----8----%----11---10---%----|
A|-6----6----4----6---------6--------------------|-6----6----4----6---------9----8---------|
E|-----------------------------------------------|-----------------------------------------|

E|--------------------------11---11----|-----------------------------------------|-----------------------------------------------|
B|--------------------------11---11----|-----------------------------------------|-----------------------------------------------|
G|-8----8----6----8----%----11---11----|---------------------%--------------%----|-8----8----6----8----%-------------3---3---3---|
D|-8----8----6----8----%---------------|---------------------%----11---10---%----|-8----8----6----8----%---------6---6-------6---|
A|-6----6----4----6--------------------|-13---13---11---13--------9----8---------|-6----6----4----6---------6--------------------|
E|-------------------------------------|-11---11---9----11-----------------------|-----------------------------------------------|

E|------------------------------------|------------------------------------|------------------------------------|
B|------------------------------------|------------------------------------|------------------------------------|
G|------------------------------------|------------------------------------|------------------------------------|
D|-------4----6----6---4--------------|-------4----6----6---4--------------|-------4----6----6---4--------------|
A|-6-----------------------6----6-----|-6-----------------------6----6-----|-6-----------------------6----6-----|
E|------------------------------------|------------------------------------|------------------------------------|

E|-6-----6-----6-----6-----|-----------------------------------------|-----------------------------|
B|-------------------------|-----------------------------------------|------------------2----2-----|
G|-------------------------|-----------------------------------------|-1----3----3-----------------|
D|-------------------------|-4----4---3-----4----4---3-----3----4----|-----------------------------|
A|-------------------------|------8---6----------8---6---------------|-----------------------------|
E|-------------------------|-----------------------------------------|-----------------------------|

E|---------------------1------|-1-------------------------|-2---2---2---2---2---2---2---2---2---2---2---2---11----|
B|-2----2---4---4-------------|-------2---4---2----2------|-4---4---4---4---4---4---4---4---4---4---4---4---------|
G|----------------------------|---------------------------|-------------------------------------------------------|
D|----------------------------|---------------------------|-------------------------------------------------------|
A|----------------------------|---------------------------|-------------------------------------------------------|
E|----------------------------|---------------------------|-------------------------------------------------------|

E|-6---------4---2--------2---4---6-------4-------2---4---|-6-------6---------|-4-------4-------2-------|
B|------7------------4----------------7-------4-----------|--------------7----|-----7-------------------|
G|--------------------------------------------------------|-------------------|-------------%-----------|
D|--------------------------------------------------------|-------------------|-------------%-----------|
A|--------------------------------------------------------|-------------------|-------------------------|
E|--------------------------------------------------------|-------------------|-------------------------|

E|-6----6----11---11---------16---14---|-14--11--11--9---11--9---------------11--9---11--11--9-----------|
B|----------------------11-------------|-------------------------11--9---11----------------------11--9---|
G|-------------------------------------|-----------------------------------------------------------------|
D|-------------------------------------|-----------------------------------------------------------------|
A|-------------------------------------|-----------------------------------------------------------------|
E|-------------------------------------|-----------------------------------------------------------------|

E|-11--9---11--------9-----------------------------|---------6----6----11-------------------|
B|---------------11------11---11---11--9-------9---|-----7------------------11---11---11----|
G|-----------------------------------------11--11--|-8--------------------------------------|
D|-------------------------------------------------|----------------------------------------|
A|-------------------------------------------------|----------------------------------------|
E|-------------------------------------------------|----------------------------------------|

E|------14--11------14--11------14--11------14--11------14--11--|-----14--11------14--11------14--11------14--11------14--11------|
B|-11-----------11----------11----------11----------11----------|-11----------11----------11----------11----------11----------11--|
G|--------------------------------------------------------------|-----------------------------------------------------------------|
D|--------------------------------------------------------------|-----------------------------------------------------------------|
A|--------------------------------------------------------------|-----------------------------------------------------------------|
E|--------------------------------------------------------------|-----------------------------------------------------------------|

E|-16-----14-------14--------------------------|-------------------------|-----------------------------------------------------------------|
B|-------------16------16--14--14--------------|-16----------------------|-----------------------------------------------------------------|
G|---------------------------------15--13--15--|-----15--13--15----------|---------11--13--13--11--13--11--11--11--8---6---8---6-----------|
D|---------------------------------------------|-----------------13------|-11--13--------------------------------------------------8-------|
A|---------------------------------------------|-----------------13------|-------------------------------------------------------------6---|
E|---------------------------------------------|-----------------11------|-----------------------------------------------------------------|

E|---------|
B|---------|
G|---------|
D|---------|
A|-5-------|
E|---------|
Black Sabbath - NIB
Black Sabbath - NIB.gp3