Black Sabbath - NIB (2)

Black Sabbath



Title: N.I.B.
Album: Ozzy Years
Artist: Black Sabbath
Author: Frank Iommi, Terence Butler, William Ward, and John Osbourne.

Track 1: Midi Bass :(
E|---------|---------|---------|---------|-----------------------------------------------|
B|---------|---------|---------|---------|-----------------------------------------------|
G|-%-------|-%-------|-%-------|-%-------|-%----%----%----%----%--%-----------------%----|
D|-%-------|-%-------|-%-------|-%-------|-%----%----%----%----%--%-----------------%----|
A|---------|---------|---------|---------|-----------------------------------------------|
E|---------|---------|---------|---------|-----------------------------2----1----1-------|

E|--------------------------------------------|-----------------------------------------------|
B|--------------------------------------------|-----------------------------------------------|
G|-%----%----%----%----%--%-------------------|-%----%----%----%----%--%-----------------%----|
D|-%----%----%----%----%--%-------------------|-%----%----%----%----%--%-----------------%----|
A|-----------------------------1--------------|-----------------------------------------------|
E|----------------------------------4----2----|-----------------------------2----1----1-------|

E|--------------------------------------------------|-----------------------------------------------|
B|--------------------------------------------------|-----------------------------------------------|
G|-%----%----%----%----%--%----%---%---%---%--------|-%----%----%----%----%--%-----------------%----|
D|-%----%----%----%----%--%----%---%---%---%--------|-%----%----%----%----%--%-----------------%----|
A|--------------------------------------------------|-----------------------------------------------|
E|---------------------------------------------2----|-----------------------------2----1----1-------|

E|--------------------------------------------|-----------------------------------------------|
B|--------------------------------------------|-----------------------------------------------|
G|-%----%----%----%----%--%-------------------|-%----%----%----%----%--%-----------------%----|
D|-%----%----%----%----%--%-------------------|-%----%----%----%----%--%-----------------%----|
A|-----------------------------1--------------|-----------------------------------------------|
E|----------------------------------4----2----|-----------------------------2----1----1-------|

E|--------------------------------------------------|-----------------------------------------------|
B|--------------------------------------------------|-----------------------------------------------|
G|-%----%----%----%----%--%----%---%---%---%--------|-%----%----%----%----%--%-----------------%----|
D|-%----%----%----%----%--%----%---%---%---%--------|-%----%----%----%----%--%-----------------%----|
A|--------------------------------------------------|-----------------------------------------------|
E|---------------------------------------------2----|-----------------------------2----1----1-------|

E|--------------------------------------------|-----------------------------------------------|
B|--------------------------------------------|-----------------------------------------------|
G|-%----%----%----%----%--%-------------------|-%----%----%----%----%--%-----------------%----|
D|-%----%----%----%----%--%-------------------|-%----%----%----%----%--%-----------------%----|
A|-----------------------------1--------------|-----------------------------------------------|
E|----------------------------------4----2----|-----------------------------2----1----1-------|

E|--------------------------------------------------|-----------------------------------------------------|
B|--------------------------------------------------|-----------------------------------------------------|
G|-%----%----%----%----%--%----%---%---%---%--------|-%----%---%---%----%---%---%----%---%---%----%---%---|
D|-%----%----%----%----%--%----%---%---%---%--------|-%----%---%---%----%---%---%----%---%---%----%---%---|
A|--------------------------------------------------|-----------------------------------------------------|
E|---------------------------------------------2----|-----------------------------------------------------|

E|-----------------------------------------------------|-----------------------------------------------------|
B|-----------------------------------------------------|-----------------------------------------------------|
G|-%----%---%---%----%---%---%----%---%---%----%---%---|-%----%---%---%----%---%---%----%---%---%----%---%---|
D|-%----%---%---%----%---%---%----%---%---%----%---%---|-%----%---%---%----%---%---%----%---%---%----%---%---|
A|-----------------------------------------------------|-----------------------------------------------------|
E|-----------------------------------------------------|-----------------------------------------------------|

E|-----------------------------------------------------|-----------------------------------------------|
B|-----------------------------------------------------|-----------------------------------------------|
G|-%----%---%---%----%---%---%----%---%---%----%---%---|-%----%----%----%----%--%-----------------%----|
D|-%----%---%---%----%---%---%----%---%---%----%---%---|-%----%----%----%----%--%-----------------%----|
A|-----------------------------------------------------|-----------------------------------------------|
E|-----------------------------------------------------|-----------------------------2----1----1-------|

E|--------------------------------------------|-----------------------------------------------|
B|--------------------------------------------|-----------------------------------------------|
G|-%----%----%----%----%--%-------------------|-%----%----%----%----%--%-----------------%----|
D|-%----%----%----%----%--%-------------------|-%----%----%----%----%--%-----------------%----|
A|-----------------------------1--------------|-----------------------------------------------|
E|----------------------------------4----2----|-----------------------------2----1----1-------|

E|--------------------------------------------------|-----------------------------------------------|
B|--------------------------------------------------|-----------------------------------------------|
G|-%----%----%----%----%--%----%---%---%---%--------|-%----%----%----%----%--%-----------------%----|
D|-%----%----%----%----%--%----%---%---%---%--------|-%----%----%----%----%--%-----------------%----|
A|--------------------------------------------------|-----------------------------------------------|
E|---------------------------------------------2----|-----------------------------2----1----1-------|

E|--------------------------------------------|-----------------------------------------------|
B|--------------------------------------------|-----------------------------------------------|
G|-%----%----%----%----%--%-------------------|-%----%----%----%----%--%-----------------%----|
D|-%----%----%----%----%--%-------------------|-%----%----%----%----%--%-----------------%----|
A|-----------------------------1--------------|-----------------------------------------------|
E|----------------------------------4----2----|-----------------------------2----1----1-------|

E|--------------------------------------------------|-----------------------------------------------|
B|--------------------------------------------------|-----------------------------------------------|
G|-%----%----%----%----%--%----%---%---%---%--------|-%----%----%----%----%--%-----------------%----|
D|-%----%----%----%----%--%----%---%---%---%--------|-%----%----%----%----%--%-----------------%----|
A|--------------------------------------------------|-----------------------------------------------|
E|---------------------------------------------2----|-----------------------------2----1----1-------|

E|--------------------------------------------|-----------------------------------------------|
B|--------------------------------------------|-----------------------------------------------|
G|-%----%----%----%----%--%-------------------|-%----%----%----%----%--%-----------------%----|
D|-%----%----%----%----%--%-------------------|-%----%----%----%----%--%-----------------%----|
A|-----------------------------1--------------|-----------------------------------------------|
E|----------------------------------4----2----|-----------------------------2----1----1-------|

E|--------------------------------------------------|-------------------------------------------|
B|--------------------------------------------------|-------------------------------------------|
G|-%----%----%----%----%--%----%---%---%---%--------|-%---------------%--------------------%----|
D|-%----%----%----%----%--%----%---%---%---%--------|-%----------1----%---1----1---1-------%----|
A|--------------------------------------------------|-------1--------------------------1--------|
E|---------------------------------------------2----|-------------------------------------------|

E|-------------------------------------------|-------------------------------------------|
B|-------------------------------------------|-------------------------------------------|
G|-%---------------%--------------------%----|-%---------------%--------------------%----|
D|-%---------------%--------------------%----|-%---------------%--------------------%----|
A|------------4--------4----4---4------------|------------2--------2----2---2------------|
E|-------4--------------------------4--------|-------2--------------------------2--------|

E|-------------------------------------------------|-------------------------------------------|
B|-------------------------------------------------|-------------------------------------------|
G|-%---------------------------------------%---%---|-%---------------%--------------------%----|
D|-%---------------------------------------%---%---|-%----------1----%---1----1---1-------%----|
A|---------------1-----1---1---1---1---------------|-------1--------------------------1--------|
E|-------1---1-------------------------1-----------|-------------------------------------------|

E|-------------------------------------------|-------------------------------------------|
B|-------------------------------------------|-------------------------------------------|
G|-%---------------%--------------------%----|-%---------------%--------------------%----|
D|-%---------------%--------------------%----|-%---------------%--------------------%----|
A|------------4--------4----4---4------------|------------2--------2----2---2------------|
E|-------4--------------------------4--------|-------2--------------------------2--------|

E|-------------------------------------------------|-------------------|----------------------|
B|-------------------------------------------------|-------------------|----------------------|
G|-%---------------------------------------%---%---|-%-------%----%----|-%-------%----%---%---|
D|-%---------------------------------------%---%---|-%-------%----%----|-%-------%----%---%---|
A|---------------1-----1---1---1---1---------------|-------------------|----------------------|
E|-------1---1-------------------------1-----------|-------------------|----------------------|

E|-------------------|---------|---------|-----------------------------------------------|
B|-------------------|---------|---------|-----------------------------------------------|
G|-%-------%----%----|-%-------|-%-------|-%----%----%----%----%--%-----------------%----|
D|-%-------%----%----|-%-------|-%-------|-%----%----%----%----%--%-----------------%----|
A|-------------------|---------|---------|-----------------------------------------------|
E|-------------------|---------|---------|-----------------------------2----1----1-------|

E|--------------------------------------------|-----------------------------------------------|
B|--------------------------------------------|-----------------------------------------------|
G|-%----%----%----%----%--%-------------------|-%----%----%----%----%--%-----------------%----|
D|-%----%----%----%----%--%-------------------|-%----%----%----%----%--%-----------------%----|
A|-----------------------------1--------------|-----------------------------------------------|
E|----------------------------------4----2----|-----------------------------2----1----1-------|

E|--------------------------------------------------|-----------------------------------------------|
B|--------------------------------------------------|-----------------------------------------------|
G|-%----%----%----%----%--%----%---%---%---%--------|-%----%----%----%----%--%-----------------%----|
D|-%----%----%----%----%--%----%---%---%---%--------|-%----%----%----%----%--%-----------------%----|
A|--------------------------------------------------|-----------------------------------------------|
E|---------------------------------------------2----|-----------------------------2----1----1-------|

E|--------------------------------------------|-----------------------------------------------|
B|--------------------------------------------|-----------------------------------------------|
G|-%----%----%----%----%--%-------------------|-%----%----%----%----%--%-----------------%----|
D|-%----%----%----%----%--%-------------------|-%----%----%----%----%--%-----------------%----|
A|-----------------------------1--------------|-----------------------------------------------|
E|----------------------------------4----2----|-----------------------------2----1----1-------|

E|--------------------------------------------------|-----------------------------------------------|
B|--------------------------------------------------|-----------------------------------------------|
G|-%----%----%----%----%--%----%---%---%---%--------|-%----%----%----%----%--%-----------------%----|
D|-%----%----%----%----%--%----%---%---%---%--------|-%----%----%----%----%--%-----------------%----|
A|--------------------------------------------------|-----------------------------------------------|
E|---------------------------------------------2----|-----------------------------2----1----1-------|

E|--------------------------------------------|-----------------------------------------------|
B|--------------------------------------------|-----------------------------------------------|
G|-%----%----%----%----%--%-------------------|-%----%----%----%----%--%-----------------%----|
D|-%----%----%----%----%--%-------------------|-%----%----%----%----%--%-----------------%----|
A|-----------------------------1--------------|-----------------------------------------------|
E|----------------------------------4----2----|-----------------------------2----1----1-------|

E|--------------------------------------------------|-----------------------------------------------------|
B|--------------------------------------------------|-----------------------------------------------------|
G|-%----%----%----%----%--%----%---%---%---%--------|-%----%---%---%----%---%---%----%---%---%----%---%---|
D|-%----%----%----%----%--%----%---%---%---%--------|-%----%---%---%----%---%---%----%---%---%----%---%---|
A|--------------------------------------------------|-----------------------------------------------------|
E|---------------------------------------------2----|-----------------------------------------------------|

E|-----------------------------------------------------|-----------------------------------------------------|
B|-----------------------------------------------------|-----------------------------------------------------|
G|-%----%---%---%----%---%---%----%---%---%----%---%---|-%----%---%---%----%---%---%----%---%---%----%---%---|
D|-%----%---%---%----%---%---%----%---%---%----%---%---|-%----%---%---%----%---%---%----%---%---%----%---%---|
A|-----------------------------------------------------|-----------------------------------------------------|
E|-----------------------------------------------------|-----------------------------------------------------|

E|-----------------------------------------------------|-----------------------------------------------------|
B|-----------------------------------------------------|-----------------------------------------------------|
G|-%----%---%---%----%---%---%----%---%---%----%---%---|-%----%---%---%----%---%---%----%---%---%----%---%---|
D|-%----%---%---%----%---%---%----%---%---%----%---%---|-%----%---%---%----%---%---%----%---%---%----%---%---|
A|-----------------------------------------------------|-----------------------------------------------------|
E|-----------------------------------------------------|-----------------------------------------------------|

E|-----------------------------------------------------|-----------------------------------------------------|
B|-----------------------------------------------------|-----------------------------------------------------|
G|-%----%---%---%----%---%---%----%---%---%----%---%---|-%----%---%---%----%---%---%----%---%---%----%---%---|
D|-%----%---%---%----%---%---%----%---%---%----%---%---|-%----%---%---%----%---%---%----%---%---%----%---%---|
A|-----------------------------------------------------|-----------------------------------------------------|
E|-----------------------------------------------------|-----------------------------------------------------|

E|-----------------------------------------------------|-----------------------------------------------------|
B|-----------------------------------------------------|-----------------------------------------------------|
G|-%----%---%---%----%---%---%----%---%---%----%---%---|-%----%---%---%----%---%---%----%---%---%----%---%---|
D|-%----%---%---%----%---%---%----%---%---%----%---%---|-%----%---%---%----%---%---%----%---%---%----%---%---|
A|-----------------------------------------------------|-----------------------------------------------------|
E|-----------------------------------------------------|-----------------------------------------------------|

E|-----------------------------------------------------|-----------------------------------------------------|
B|-----------------------------------------------------|-----------------------------------------------------|
G|-%----%---%---%----%---%---%----%---%---%----%---%---|-%----%---%---%----%---%---%----%---%---%----%---%---|
D|-%----%---%---%----%---%---%----%---%---%----%---%---|-%----%---%---%----%---%---%----%---%---%----%---%---|
A|-----------------------------------------------------|-----------------------------------------------------|
E|-----------------------------------------------------|-----------------------------------------------------|

E|-----------------------------------------------------|----------------------------------|
B|-----------------------------------------------------|----------------------------------|
G|-%----%---%---%----%---%---%----%---%---%----%---%---|-%---%---%---%---%---%------%-----|
D|-%----%---%---%----%---%---%----%---%---%----%---%---|-%---%---%---%---%---%------%-----|
A|-----------------------------------------------------|----------------------------------|
E|-----------------------------------------------------|----------------------------------|

E|----------------------------------|----------------------------------|-----------------------------------------------------------------|
B|----------------------------------|----------------------------------|-----------------------------------------------------------------|
G|-%---%---%---%---%---%------%-----|-%---%---%---%---%---%------%-----|-%---%---------------------------%---%---%---%-------------------|
D|-%---%---%---%---%---%------%-----|-%---%---%---%---%---%------%-----|-%---%---------------------------%---%---%---%---------------1---|
A|----------------------------------|----------------------------------|-----------------1---1-------------------------------1---4-------|
E|----------------------------------|----------------------------------|---------1---1-----------1---1-------------------4---------------|

E|--------------------------------------------------------------|--------------------------------------------------------------|
B|--------------------------------------------------------------|--------------------------------------------------------------|
G|------------------------------%---%---%---%-------------------|------------------------------%---%---%---%-------------------|
D|-1---1---1---1---1------------%---%---%---%-------------------|------------------------------%---%---%---%-------------------|
A|---------------------4---1----------------------------2---4---|-4---4---4---4---4---2--------------------------------0---2---|
E|----------------------------------------------2---4-----------|-------------------------4--------------------0---2-----------|

E|--------------------------------------------------------------|----------------------------------|
B|--------------------------------------------------------------|----------------------------------|
G|-----------------------------%----%---%---%---%---------------|----------------------------------|
D|-----------------------------%----%---%---%---%---------------|----------------------------------|
A|-2---2---2---2---2---0------------------------------------1---|-1----1---1---1---1---------------|
E|-------------------------2------------------------0---4-------|----------------------4----0------|

E|-----------------------------------------------|--------------------------------------------|
B|-----------------------------------------------|--------------------------------------------|
G|-%----%----%----%----%--%-----------------%----|-%----%----%----%----%--%-------------------|
D|-%----%----%----%----%--%-----------------%----|-%----%----%----%----%--%-------------------|
A|-----------------------------------------------|-----------------------------1--------------|
E|-----------------------------2----1----1-------|----------------------------------4----2----|

E|-----------------------------------------------|--------------------------------------------------|
B|-----------------------------------------------|--------------------------------------------------|
G|-%----%----%----%----%--%-----------------%----|-%----%----%----%----%--%----%---%---%---%--------|
D|-%----%----%----%----%--%-----------------%----|-%----%----%----%----%--%----%---%---%---%--------|
A|-----------------------------------------------|--------------------------------------------------|
E|-----------------------------2----1----1-------|---------------------------------------------2----|

E|-----------------------------------------------|--------------------------------------------|
B|-----------------------------------------------|--------------------------------------------|
G|-%----%----%----%----%--%-----------------%----|-%----%----%----%----%--%-------------------|
D|-%----%----%----%----%--%-----------------%----|-%----%----%----%----%--%-------------------|
A|-----------------------------------------------|-----------------------------1--------------|
E|-----------------------------2----1----1-------|----------------------------------4----2----|

E|-----------------------------------------------|--------------------------------------------------|
B|-----------------------------------------------|--------------------------------------------------|
G|-%----%----%----%----%--%-----------------%----|-%----%----%----%----%--%----%---%---%---%--------|
D|-%----%----%----%----%--%-----------------%----|-%----%----%----%----%--%----%---%---%---%--------|
A|-----------------------------------------------|--------------------------------------------------|
E|-----------------------------2----1----1-------|---------------------------------------------2----|

E|-----------------------------------------------|--------------------------------------------|
B|-----------------------------------------------|--------------------------------------------|
G|-%----%----%----%----%--%-----------------%----|-%----%----%----%----%--%-------------------|
D|-%----%----%----%----%--%-----------------%----|-%----%----%----%----%--%-------------------|
A|-----------------------------------------------|-----------------------------1--------------|
E|-----------------------------2----1----1-------|----------------------------------4----2----|

E|-----------------------------------------------|--------------------------------------------------|
B|-----------------------------------------------|--------------------------------------------------|
G|-%----%----%----%----%--%-----------------%----|-%----%----%----%----%--%----%---%---%---%--------|
D|-%----%----%----%----%--%-----------------%----|-%----%----%----%----%--%----%---%---%---%--------|
A|-----------------------------------------------|--------------------------------------------------|
E|-----------------------------2----1----1-------|---------------------------------------------2----|

E|-------------------------------------------|-------------------------------------------|
B|-------------------------------------------|-------------------------------------------|
G|-%---------------%--------------------%----|-%---------------%--------------------%----|
D|-%----------1----%---1----1---1-------%----|-%---------------%--------------------%----|
A|-------1--------------------------1--------|------------4--------4----4---4------------|
E|-------------------------------------------|-------4--------------------------4--------|

E|-------------------------------------------|-------------------------------------------------|
B|-------------------------------------------|-------------------------------------------------|
G|-%---------------%--------------------%----|-%---------------------------------------%---%---|
D|-%---------------%--------------------%----|-%---------------------------------------%---%---|
A|------------2--------2----2---2------------|---------------1-----1---1---1---1---------------|
E|-------2--------------------------2--------|-------1---1-------------------------1-----------|

E|-------------------------------------------|-------------------------------------------|
B|-------------------------------------------|-------------------------------------------|
G|-%---------------%--------------------%----|-%---------------%--------------------%----|
D|-%----------1----%---1----1---1-------%----|-%---------------%--------------------%----|
A|-------1--------------------------1--------|------------4--------4----4---4------------|
E|-------------------------------------------|-------4--------------------------4--------|

E|-------------------------------------------|-------------------------------------------------|
B|-------------------------------------------|-------------------------------------------------|
G|-%---------------%--------------------%----|-%---------------------------------------%---%---|
D|-%---------------%--------------------%----|-%---------------------------------------%---%---|
A|------------2--------2----2---2------------|---------------1-----1---1---1---1---------------|
E|-------2--------------------------2--------|-------1---1-------------------------1-----------|

E|-------------------|-------------------|-------------------|---------|---------|-----------------------------------------------|
B|-------------------|-------------------|-------------------|---------|---------|-----------------------------------------------|
G|-%-------%----%----|-%-------%----%----|-%-------%----%----|-%-------|-%-------|-%----%----%----%----%--%-----------------%----|
D|-%-------%----%----|-%-------%----%----|-%-------%----%----|-%-------|-%-------|-%----%----%----%----%--%-----------------%----|
A|-------------------|-------------------|-------------------|---------|---------|-----------------------------------------------|
E|-------------------|-------------------|-------------------|---------|---------|-----------------------------2----1----1-------|

E|--------------------------------------------|-----------------------------------------------|
B|--------------------------------------------|-----------------------------------------------|
G|-%----%----%----%----%--%-------------------|-%----%----%----%----%--%-----------------%----|
D|-%----%----%----%----%--%-------------------|-%----%----%----%----%--%-----------------%----|
A|-----------------------------1--------------|-----------------------------------------------|
E|----------------------------------4----2----|-----------------------------2----1----1-------|

E|--------------------------------------------------|-----------------------------------------------|
B|--------------------------------------------------|-----------------------------------------------|
G|-%----%----%----%----%--%----%---%---%---%--------|-%----%----%----%----%--%-----------------%----|
D|-%----%----%----%----%--%----%---%---%---%--------|-%----%----%----%----%--%-----------------%----|
A|--------------------------------------------------|-----------------------------------------------|
E|---------------------------------------------2----|-----------------------------2----1----1-------|

E|--------------------------------------------|-----------------------------------------------|
B|--------------------------------------------|-----------------------------------------------|
G|-%----%----%----%----%--%-------------------|-%----%----%----%----%--%-----------------%----|
D|-%----%----%----%----%--%-------------------|-%----%----%----%----%--%-----------------%----|
A|-----------------------------1--------------|-----------------------------------------------|
E|----------------------------------4----2----|-----------------------------2----1----1-------|

E|--------------------------------------------------|-----------------------------------------------|
B|--------------------------------------------------|-----------------------------------------------|
G|-%----%----%----%----%--%----%---%---%---%--------|-%----%----%----%----%--%-----------------%----|
D|-%----%----%----%----%--%----%---%---%---%--------|-%----%----%----%----%--%-----------------%----|
A|--------------------------------------------------|-----------------------------------------------|
E|---------------------------------------------2----|-----------------------------2----1----1-------|

E|--------------------------------------------|-----------------------------------------------|
B|--------------------------------------------|-----------------------------------------------|
G|-%----%----%----%----%--%-------------------|-%----%----%----%----%--%-----------------%----|
D|-%----%----%----%----%--%-------------------|-%----%----%----%----%--%-----------------%----|
A|-----------------------------1--------------|-----------------------------------------------|
E|----------------------------------4----2----|-----------------------------2----1----1-------|

E|--------------------------------------------------|-----------------------------------------------------|
B|--------------------------------------------------|-----------------------------------------------------|
G|-%----%----%----%----%--%----%---%---%---%--------|-%----%---%---%----%---%---%----%---%---%----%---%---|
D|-%----%----%----%----%--%----%---%---%---%--------|-%----%---%---%----%---%---%----%---%---%----%---%---|
A|--------------------------------------------------|-----------------------------------------------------|
E|---------------------------------------------2----|-----------------------------------------------------|

E|-----------------------------------------------------|-----------------------------------------------------|
B|-----------------------------------------------------|-----------------------------------------------------|
G|-%----%---%---%----%---%---%----%---%---%----%---%---|-%----%---%---%----%---%---%----%---%---%----%---%---|
D|-%----%---%---%----%---%---%----%---%---%----%---%---|-%----%---%---%----%---%---%----%---%---%----%---%---|
A|-----------------------------------------------------|-----------------------------------------------------|
E|-----------------------------------------------------|-----------------------------------------------------|

E|-----------------------------------------------------|-----------------------------------------------------|
B|-----------------------------------------------------|-----------------------------------------------------|
G|-%----%---%---%----%---%---%----%---%---%----%---%---|-%----%---%---%----%---%---%----%---%---%----%---%---|
D|-%----%---%---%----%---%---%----%---%---%----%---%---|-%----%---%---%----%---%---%----%---%---%----%---%---|
A|-----------------------------------------------------|-----------------------------------------------------|
E|-----------------------------------------------------|-----------------------------------------------------|

E|-----------------------------------------------------|-----------------------------------------------------|
B|-----------------------------------------------------|-----------------------------------------------------|
G|-%----%---%---%----%---%---%----%---%---%----%---%---|-%----%---%---%----%---%---%----%---%---%----%---%---|
D|-%----%---%---%----%---%---%----%---%---%----%---%---|-%----%---%---%----%---%---%----%---%---%----%---%---|
A|-----------------------------------------------------|-----------------------------------------------------|
E|-----------------------------------------------------|-----------------------------------------------------|

E|-----------------------------------------------------|-------------------------------------------|
B|-----------------------------------------------------|-------------------------------------------|
G|-%----%---%---%----%---%---%----%---%---%----%---%---|-%---------------%--------------------%----|
D|-%----%---%---%----%---%---%----%---%---%----%---%---|-%----------1----%---1----1---1-------%----|
A|-----------------------------------------------------|-------1--------------------------1--------|
E|-----------------------------------------------------|-------------------------------------------|

E|-------------------------------------------|-------------------------------------------|
B|-------------------------------------------|-------------------------------------------|
G|-%---------------%--------------------%----|-%---------------%--------------------%----|
D|-%---------------%--------------------%----|-%---------------%--------------------%----|
A|------------4--------4----4---4------------|------------2--------2----2---2------------|
E|-------4--------------------------4--------|-------2--------------------------2--------|

E|-------------------------------------------------|-----------------------------------------------------|
B|-------------------------------------------------|-----------------------------------------------------|
G|-%---------------------------------------%---%---|-%----%---%---%----%---%---%----%---%---%----%---%---|
D|-%---------------------------------------%---%---|-%----%---%---%----%---%---%----%---%---%----%---%---|
A|---------------1-----1---1---1---1---------------|-----------------------------------------------------|
E|-------1---1-------------------------1-----------|-----------------------------------------------------|

E|-----------------------------------------------------|-----------------------------------------------------|
B|-----------------------------------------------------|-----------------------------------------------------|
G|-%----%---%---%----%---%---%----%---%---%----%---%---|-%----%---%---%----%---%---%----%---%---%----%---%---|
D|-%----%---%---%----%---%---%----%---%---%----%---%---|-%----%---%---%----%---%---%----%---%---%----%---%---|
A|-----------------------------------------------------|-----------------------------------------------------|
E|-----------------------------------------------------|-----------------------------------------------------|

E|-----------------------------------------------------|-------------------------------------------|
B|-----------------------------------------------------|-------------------------------------------|
G|-%----%---%---%----%---%---%----%---%---%----%---%---|-%---------------%--------------------%----|
D|-%----%---%---%----%---%---%----%---%---%----%---%---|-%----------1----%---1----1---1-------%----|
A|-----------------------------------------------------|-------1--------------------------1--------|
E|-----------------------------------------------------|-------------------------------------------|

E|-------------------------------------------|-------------------------------------------|
B|-------------------------------------------|-------------------------------------------|
G|-%---------------%--------------------%----|-%---------------%--------------------%----|
D|-%---------------%--------------------%----|-%---------------%--------------------%----|
A|------------4--------4----4---4------------|------------2--------2----2---2------------|
E|-------4--------------------------4--------|-------2--------------------------2--------|

E|---------------|---------|---------|---------|
B|---------------|---------|---------|---------|
G|-%-----%-------|-%-------|-%-------|-%-------|
D|-%-----%-------|-%-------|-%-------|-%-------|
A|---------------|---------|---------|---------|
E|---------------|---------|---------|---------|
Black Sabbath - NIB (2)
Black Sabbath - NIB (2).gp3