Black Sabbath - Paranoid (solo)

Black Sabbath



Title: Paranoid (solo)
Album: 
Artist: 
Author: Black Sabbath

Track 1: 
E|------------------------|-------------------------------------|-------------------------------------|
B|------------------------|-------------------------------------|-------------------------------------|
G|-9-----7----9----9------|-9-----9----7----9----7--------------|-------------------------------------|
D|------------------------|---------------------------9----7----|-5----7----5----7--------------------|
A|------------------------|-------------------------------------|---------------------5----7----7-----|
E|------------------------|-------------------------------------|-------------------------------------|

E|------------------------|-------------------------------------|----------------------------------------|
B|------------------------|-------------------------------------|--------------8----10---10----8----10---|
G|------------------------|---------------------7----9----9-----|-7----8--9------------------------------|
D|-5----------------------|-5----7----7----9--------------------|----------------------------------------|
A|------7----7-----7------|-------------------------------------|----------------------------------------|
E|------------------------|-------------------------------------|----------------------------------------|

E|---------------------------------|-------------------------------12--------|-------------------------|
B|-10----8---10----8---------------|--------------------------12--------12---|-15-----15-----15---12---|
G|----------------------9----9-----|-7----9----9----9----14------------------|-------------------------|
D|---------------------------------|-----------------------------------------|-------------------------|
A|---------------------------------|-----------------------------------------|-------------------------|
E|---------------------------------|-----------------------------------------|-------------------------|

E|-15----15----15---15--12--15--12-------|-15--12-------------------------12----------------|
B|----------------------------------15---|---------15---15--12-------12--------15--12-------|
G|---------------------------------------|----------------------14---------------------14---|
D|---------------------------------------|--------------------------------------------------|
A|---------------------------------------|--------------------------------------------------|
E|---------------------------------------|--------------------------------------------------|

E|------------------------------------|----------------------------------------------|
B|------------------------------------|----------------------------------------------|
G|-14--12-------12---14---14----12----|-14----12--14--12------12---------------------|
D|---------14-------------------------|-------------------14-------14---14--12-------|
A|------------------------------------|-----------------------------------------14---|
E|------------------------------------|----------------------------------------------|

E|----------------------------------------|---------------------------------|-----------------------------|
B|----------------------------------------|---------------------------------|-----------------------------|
G|----------------------------------------|-----------------12--------------|------------------%----%-----|
D|-12-------------------------------------|-12----12---14--------14---12----|-14---12-----14---%----%-----|
A|-------12---10---12--10-------12---14---|---------------------------------|-----------------------------|
E|-------------------------12-------------|---------------------------------|-----------------------------|
Black Sabbath - Paranoid (solo)
Black Sabbath - Paranoid (solo).gp3