Black Sabbath - sabbath bloody sabbath (2)

Black Sabbath



Title: Sabbath bloody sabbath
Album: 
Artist: Black Sabbath
Author: 

Track 1: Guitar 1
C#|-----------------------------------------------------------|-----------------------------------------------|
G#|-----------------------------------------------------------|-----------------------------------------------|
 E|-----------------------------------------------------------|-----------------------------------------------|
 B|-0---9---9---9---9------------0---9---9---9---9------------|-5-----7---7----9----9---12---9---9----9---9---|
F#|-0---7---7---7---7----7---7---0---7---7---7---7----0---0---|-3-----5---5----7----7---10---7---7----7---7---|
C#|-----------------------------------------------------------|-----------------------------------------------|

C#|-----------------------------------------------------------|-----------------------------------------------|
G#|-----------------------------------------------------------|-----------------------------------------------|
 E|-----------------------------------------------------------|-----------------------------------------------|
 B|-0---9---9---9---9------------0---9---9---9---9------------|-5-----7---7----9----9---12---9---9----9---9---|
F#|-0---7---7---7---7----7---7---0---7---7---7---7----0---0---|-3-----5---5----7----7---10---7---7----7---7---|
C#|-----------------------------------------------------------|-----------------------------------------------|

C#|-----------------------------------------------------------|-----------------------------------------------|
G#|-----------------------------------------------------------|-----------------------------------------------|
 E|-----------------------------------------------------------|-----------------------------------------------|
 B|-0---9---9---9---9------------0---9---9---9---9------------|-5-----7---7----9----9---12---9---9----9---9---|
F#|-0---7---7---7---7----7---7---0---7---7---7---7----0---0---|-3-----5---5----7----7---10---7---7----7---7---|
C#|-----------------------------------------------------------|-----------------------------------------------|

C#|-----------------------------------------------------------|-----------------------------------------------|
G#|-----------------------------------------------------------|-----------------------------------------------|
 E|-----------------------------------------------------------|-----------------------------------------------|
 B|-0---9---9---9---9------------0---9---9---9---9------------|-5-----7---7----9----9---12---9---9----9---9---|
F#|-0---7---7---7---7----7---7---0---7---7---7---7----0---0---|-3-----5---5----7----7---10---7---7----7---7---|
C#|-----------------------------------------------------------|-----------------------------------------------|

C#|-----------------------------------------------------------|-----------------------------------------------|
G#|-----------------------------------------------------------|-----------------------------------------------|
 E|-----------------------------------------------------------|-----------------------------------------------|
 B|-0---9---9---9---9------------0---9---9---9---9------------|-5-----7---7----9----9---12---9---9----9---9---|
F#|-0---7---7---7---7----7---7---0---7---7---7---7----0---0---|-3-----5---5----7----7---10---7---7----7---7---|
C#|-----------------------------------------------------------|-----------------------------------------------|

C#|---------|---------|---------|---------|---------|---------|---------|---------|
G#|---------|---------|---------|---------|---------|---------|---------|---------|
 E|-%-------|-%-------|-%-------|-%-------|-%-------|-%-------|-%-------|-%-------|
 B|-%-------|-%-------|-%-------|-%-------|-%-------|-%-------|-%-------|-%-------|
F#|---------|---------|---------|---------|---------|---------|---------|---------|
C#|---------|---------|---------|---------|---------|---------|---------|---------|

C#|-----------------------------------------------------------|-----------------------------------------------|
G#|-----------------------------------------------------------|-----------------------------------------------|
 E|-----------------------------------------------------------|-----------------------------------------------|
 B|-0---9---9---9---9------------0---9---9---9---9------------|-5-----7---7----9----9---12---9---9----9---9---|
F#|-0---7---7---7---7----7---7---0---7---7---7---7----0---0---|-3-----5---5----7----7---10---7---7----7---7---|
C#|-----------------------------------------------------------|-----------------------------------------------|

C#|-----------------------------------------------------------|-----------------------------------------------|
G#|-----------------------------------------------------------|-----------------------------------------------|
 E|-----------------------------------------------------------|-----------------------------------------------|
 B|-0---9---9---9---9------------0---9---9---9---9------------|-5-----7---7----9----9---12---9---9----9---9---|
F#|-0---7---7---7---7----7---7---0---7---7---7---7----0---0---|-3-----5---5----7----7---10---7---7----7---7---|
C#|-----------------------------------------------------------|-----------------------------------------------|

C#|-----------------------------------------------------------|-----------------------------------------------|
G#|-----------------------------------------------------------|-----------------------------------------------|
 E|-----------------------------------------------------------|-----------------------------------------------|
 B|-0---9---9---9---9------------0---9---9---9---9------------|-5-----7---7----9----9---12---9---9----9---9---|
F#|-0---7---7---7---7----7---7---0---7---7---7---7----0---0---|-3-----5---5----7----7---10---7---7----7---7---|
C#|-----------------------------------------------------------|-----------------------------------------------|

C#|-----------------------------------------------------------|-----------------------------------------------|
G#|-----------------------------------------------------------|-----------------------------------------------|
 E|-----------------------------------------------------------|-----------------------------------------------|
 B|-0---9---9---9---9------------0---9---9---9---9------------|-5-----7---7----9----9---12---9---9----9---9---|
F#|-0---7---7---7---7----7---7---0---7---7---7---7----0---0---|-3-----5---5----7----7---10---7---7----7---7---|
C#|-----------------------------------------------------------|-----------------------------------------------|

C#|-----------------------------------------------------------|-----------------------------------------------|
G#|-----------------------------------------------------------|-----------------------------------------------|
 E|-----------------------------------------------------------|-----------------------------------------------|
 B|-0---9---9---9---9------------0---9---9---9---9------------|-5-----7---7----9----9---12---9---9----9---9---|
F#|-0---7---7---7---7----7---7---0---7---7---7---7----0---0---|-3-----5---5----7----7---10---7---7----7---7---|
C#|-----------------------------------------------------------|-----------------------------------------------|

C#|-----------------------------------------------------------|-----------------------------------------------|
G#|-----------------------------------------------------------|-----------------------------------------------|
 E|-----------------------------------------------------------|-----------------------------------------------|
 B|-0---9---9---9---9------------0---9---9---9---9------------|-5-----7---7----9----9---12---9---9----9---9---|
F#|-0---7---7---7---7----7---7---0---7---7---7---7----0---0---|-3-----5---5----7----7---10---7---7----7---7---|
C#|-----------------------------------------------------------|-----------------------------------------------|

C#|---------|---------|---------|---------|---------|---------|---------|---------|
G#|---------|---------|---------|---------|---------|---------|---------|---------|
 E|-%-------|-%-------|-%-------|-%-------|-%-------|-%-------|-%-------|-%-------|
 B|-%-------|-%-------|-%-------|-%-------|-%-------|-%-------|-%-------|-%-------|
F#|---------|---------|---------|---------|---------|---------|---------|---------|
C#|---------|---------|---------|---------|---------|---------|---------|---------|

C#|---------|-----------------------------------------------------------|-----------------------------------------------|
G#|---------|-----------------------------------------------------------|-----------------------------------------------|
 E|-%-------|-----------------------------------------------------------|-----------------------------------------------|
 B|-%-------|-0---9---9---9---9------------0---9---9---9---9------------|-5-----7---7----9----9---12---9---9----9---9---|
F#|---------|-0---7---7---7---7----7---7---0---7---7---7---7----0---0---|-3-----5---5----7----7---10---7---7----7---7---|
C#|---------|-----------------------------------------------------------|-----------------------------------------------|

C#|-----------------------------------------------------------|-----------------------------------------------|
G#|-----------------------------------------------------------|-----------------------------------------------|
 E|-----------------------------------------------------------|-----------------------------------------------|
 B|-0---9---9---9---9------------0---9---9---9---9------------|-5-----7---7----9----9---12---9---9----9---9---|
F#|-0---7---7---7---7----7---7---0---7---7---7---7----0---0---|-3-----5---5----7----7---10---7---7----7---7---|
C#|-----------------------------------------------------------|-----------------------------------------------|

C#|-----------------------------------------------------------|-----------------------------------------------|
G#|-----------------------------------------------------------|-----------------------------------------------|
 E|-----------------------------------------------------------|-----------------------------------------------|
 B|-0---9---9---9---9------------0---9---9---9---9------------|-5-----7---7----9----9---12---9---9----9---9---|
F#|-0---7---7---7---7----7---7---0---7---7---7---7----0---0---|-3-----5---5----7----7---10---7---7----7---7---|
C#|-----------------------------------------------------------|-----------------------------------------------|

C#|-----------------------------------------------------------|-----------------------------------------------|
G#|-----------------------------------------------------------|-----------------------------------------------|
 E|-----------------------------------------------------------|-----------------------------------------------|
 B|-0---9---9---9---9------------0---9---9---9---9------------|-5-----7---7----9----9---12---9---9----9---9---|
F#|-0---7---7---7---7----7---7---0---7---7---7---7----0---0---|-3-----5---5----7----7---10---7---7----7---7---|
C#|-----------------------------------------------------------|-----------------------------------------------|

C#|-----------------------------------------------------------|-----------------------------------------------|
G#|-----------------------------------------------------------|-----------------------------------------------|
 E|-----------------------------------------------------------|-----------------------------------------------|
 B|-0---9---9---9---9------------0---9---9---9---9------------|-5-----7---7----9----9---12---9---9----9---9---|
F#|-0---7---7---7---7----7---7---0---7---7---7---7----0---0---|-3-----5---5----7----7---10---7---7----7---7---|
C#|-----------------------------------------------------------|-----------------------------------------------|

C#|--------------------------------------------------|-----------------------------------------|
G#|--------------------------------------------------|-----------------------------------------|
 E|-14----14--%---12--14---14---%---12--14-----------|-9-----7---7----9----9---9-----9----7----|
 B|-14----14--%---12--14---14---%---12--14---14--14--|-9-----7---7----9----9---9-----9----7----|
F#|-12----12------10--12---12-------10--12---12--12--|-7-----5---5----7----7---5-----7----5----|
C#|-12----12------10--12---12-------10--12-----------|-7-----5---5----7----7---5-----7----5----|

C#|-----------------------------------------|---------|-----------------------------------------------------------|
G#|-----------------------------------------|---------|-----------------------------------------------------------|
 E|-9-----7---7----9----9---9-----5----7----|-4-------|-----------------------------------------------------------|
 B|-9-----7---7----9----9---9-----5----7----|-4-------|-----------------------------------------------------------|
F#|-7-----5---5----7----7---5-----3----5----|-2-------|---------5---4---5---4---5---------------5---4---5---6-----|
C#|-7-----5---5----7----7---5-----3----5----|-2-------|-0---0---3---2---3---2---3---0---0---0---3---2---3---4-----|

C#|-----------------------------------------------------------|-----------------------------------------------------------|
G#|-----------------------------------------------------------|-----------------------------------------------------------|
 E|-----------------------------------------------------------|-----------------------------------------------------------|
 B|-----------------------------------------------------------|-----------------------------------------------------------|
F#|---------5---4---5---4---5---------------5---4---5---6-----|---------5---4---5---4---5---------------5---4---5---6-----|
C#|-0---0---3---2---3---2---3---0---0---0---3---2---3---4-----|-0---0---3---2---3---2---3---0---0---0---3---2---3---4-----|

C#|-----------------------------------------------------------|-----------------------------------------------------------|
G#|-----------------------------------------------------------|-----------------------------------------------------------|
 E|-----------------------------------------------------------|-----------------------------------------------------------|
 B|-----------------------------------------------------------|-----------------------------------------------------------|
F#|---------5---4---5---4---5---------------5---4---5---6-----|---------5---4---5---4---5---------------5---4---5---6-----|
C#|-0---0---3---2---3---2---3---0---0---0---3---2---3---4-----|-0---0---3---2---3---2---3---0---0---0---3---2---3---4-----|

C#|----------------------------------------------------------------|-------------------------------------------------------------|
G#|----------------------------------------------------------------|-------------------------------------------------------------|
 E|----------------------------------------------------------------|-------------------------%-------%-------%-------------------|
 B|----------------------------------------------------------5--7--|-9---9---9---7---9---9---%---9---%---7---%---5---5-----5--7--|
F#|---------5---4---5---4---5---------------5---4-------6----------|-------------------------------------------------------------|
C#|-0---0-----------------------0---0---0-----------3--------------|-------------------------------------------------------------|

C#|-------------------------------------------------------------|----------------------------------------------------------------|
G#|-------------------------------------------------------------|----------------------------------------------------------------|
 E|-------------------------%-------%-------%-------------------|-------------------------%-------%-------%-------%--------------|
 B|-9---9---9---7---9---9---%---9---%---7---%---5---5-----5--7--|-9---9---9---7---9---9---%---9---%---7---%---5---%---7----4--4--|
F#|-------------------------------------------------------------|----------------------------------------------------------------|
C#|-------------------------------------------------------------|----------------------------------------------------------------|

C#|---------|-----------------------------------------------------------|-----------------------------------------------------------|
G#|---------|-----------------------------------------------------------|-----------------------------------------------------------|
 E|---------|-----------------------------------------------------------|-----------------------------------------------------------|
 B|-4-------|-----------------------------------------------------------|-----------------------------------------------------------|
F#|---------|---------5---4---5---4---5---------------5---4---5---6-----|---------5---4---5---4---5---------------5---4---5---6-----|
C#|---------|-0---0---3---2---3---2---3---0---0---0---3---2---3---4-----|-0---0---3---2---3---2---3---0---0---0---3---2---3---4-----|

C#|-----------------------------------------------------------|-----------------------------------------------------------|
G#|-----------------------------------------------------------|-----------------------------------------------------------|
 E|-----------------------------------------------------------|-----------------------------------------------------------|
 B|-----------------------------------------------------------|-----------------------------------------------------------|
F#|---------5---4---5---4---5---------------5---4---5---6-----|---------5---4---5---4---5---------------5---4---5---6-----|
C#|-0---0---3---2---3---2---3---0---0---0---3---2---3---4-----|-0---0---3---2---3---2---3---0---0---0---3---2---3---4-----|

C#|-----------------------------------------------------------|----------------------------------------------------------------|
G#|-----------------------------------------------------------|----------------------------------------------------------------|
 E|-----------------------------------------------------------|----------------------------------------------------------------|
 B|-----------------------------------------------------------|----------------------------------------------------------5--7--|
F#|---------5---4---5---4---5---------------5---4---5---6-----|---------5---4---5---4---5---------------5---4-------6----------|
C#|-0---0---3---2---3---2---3---0---0---0---3---2---3---4-----|-0---0-----------------------0---0---0-----------3--------------|

C#|-------------------------------------------------------------|-------------------------------------------------------------|
G#|-------------------------------------------------------------|-------------------------------------------------------------|
 E|-------------------------%-------%-------%-------------------|-------------------------%-------%-------%-------------------|
 B|-9---9---9---7---9---9---%---9---%---7---%---5---5-----5--7--|-9---9---9---7---9---9---%---9---%---7---%---5---5-----5--7--|
F#|-------------------------------------------------------------|-------------------------------------------------------------|
C#|-------------------------------------------------------------|-------------------------------------------------------------|

C#|----------------------------------------------------------------|---------|--------------|
G#|----------------------------------------------------------------|---------|--------------|
 E|-------------------------%-------%-------%-------%--------------|---------|--------------|
 B|-9---9---9---7---9---9---%---9---%---7---%---5---%---7----4--4--|-4-------|-4-------4----|
F#|----------------------------------------------------------------|---------|--------------|
C#|----------------------------------------------------------------|---------|--------------|

C#|---------|---------|---------|---------|---------|---------|---------|---------|
G#|---------|---------|---------|---------|---------|---------|---------|---------|
 E|---------|-X-------|-X-------|-X-------|-X-------|-X-------|-X-------|-X-------|
 B|-4-------|-X-------|-X-------|-X-------|-X-------|-X-------|-X-------|-X-------|
F#|---------|-X-------|-X-------|-X-------|-X-------|-X-------|-X-------|-X-------|
C#|---------|---------|---------|---------|---------|---------|---------|---------|

C#|---------|---------|---------|---------|---------|---------|---------|---------|
G#|---------|---------|---------|---------|---------|---------|---------|---------|
 E|-4-------|-4-------|-%-------|-%-------|-%-------|-%-------|-%-------|-%-------|
 B|-4-------|-4-------|-%-------|-%-------|-%-------|-%-------|-%-------|-%-------|
F#|-2-------|-2-------|---------|---------|---------|---------|---------|---------|
C#|---------|---------|---------|---------|---------|---------|---------|---------|

C#|---------|---------|---------|---------|---------|---------|
G#|---------|---------|---------|---------|---------|---------|
 E|-%-------|-%-------|-%-------|-%-------|-%-------|-%-------|
 B|-%-------|-%-------|-%-------|-%-------|-%-------|-%-------|
F#|---------|---------|---------|---------|---------|---------|
C#|---------|---------|---------|---------|---------|---------|
Black Sabbath - sabbath bloody sabbath (2)
Black Sabbath - sabbath bloody sabbath (2).gp3